Essência da PaixãoCifra Verificada

Grupo Revelação

Tom: Cm
Intro: Cm  F7(9) 2x  

Cm            F7(9)      Bb7sus4  
Te quero demais minha flor  
    Bb7              Eb     G7   Cm  
Não deixe esse amor acabar  
                 F7(9)   Bb7sus4  
Te juro, ninguém me amou  
Bb7                Eb     Bbm  
Do jeito que sabe me amar  
Eb7               Ab7+    Abm6  
Ainda sinto o teu perfume  
                 Gm7   C7  
Pura essência da paixão  
                Fm       Gm7        Ab7M  
És razão do meu ciúme  a saudade me invade  
Bb7           Eb     Eb5+   Bbm  
Aumentando a solidão  
Eb7             Ab7+      Abm6   
Só quero viver a teu lado  
                 Gm7      C7  
Sentindo a mesma emoção  
                  Fm  
Te amando e sendo amado  
         Gm7    Ab7M  
Provando pecado  
Bb7            Eb  
Renascendo de paixão  

G7        Cm  
Vem, meu amor  
Cm                    F7(9)  
Que vontade de te dar um beijo  
                 Fm  
Me perder no seu desejo  
Bb7          Eb  
No seu corpo acordar  
G7       Cm  
Vem, meu amor  
                F7(9)  
Tô carente, tão sozinho  
              Fm  
Precisando de carinho  
Bb7          Eb  
Vem, vamos recomeçar  



 
Arpejo 1   

|--------5-----------------------------------------------|  
|--3h4---------------------------------------------------|  
|--------------------------------------------------------|  
|--------------------------------------------------------|  


Arpejo 2  

|--3h5--3-----3h5--3-------------------------------------|  
|----------4----------4----------------------------------|  
|------------------------4-------------------------------|  
|--------------------------------------------------------| 

Compartilhe esta música: novo

QR Code
Copiar