Deixa AcontecerCifra Verificada

Grupo Revelação

Tom: Bm
  


Intro:  

d|-4-------5-7-5-4-------4------------9-----4-------5-7-5-|  
B|----3---------------------3-----7-7---7------3----------|  
G|-------4-----------2-4--------4-----------------4-------|  
D|-----------------4--------------------------------------|  

d|-4-------|  
B|---------|  
G|-----2-4-|  
D|---4-----|  


Riff 1:  

d|-2-4-2-4-2-4-4-|  
B|---------------|  
G|---------------|  
D|---------------|  

Riff 2:  

d|-4-5-4-5-4-5-4--4-|  
B|------------------|  
G|------------------|  
D|------------------|  

Riff 3:  

d|-7-9-7-9-7-9-7-9-7-|  
B|-------------------|  
G|-------------------|  
D|-------------------|  

D7 G7+ F#7 Bm Deixa acontecer naturalmente D7 G7+ F#7 Bm Bbm Am Eu não quero ver você chorar Am D7 G7+ F#7 Bm Deixa que o amor encontre a gente D7 C#m5b/7 F#7 Bm Nosso caso vai eternizar A7 Bm D7 G7+ F#7 Bm Deixa acontecer naturalmente D7 G7+ F#7 Bm Bbm Am Eu não quero ver você chorar Am D7 G7+ F#7 Bm Deixa que o amor encontre a gente D7 C#m5b/7 F#7 Bm Nosso caso vai eternizar Riff 1 D7 Você já disse que me quer F#m7 Pra toda a vida, eternidade Em F#m7 Quando está distante de mim Em F#m7 G7+ A7 Fica louca de sau..da.de D6 F#m7 Quem é a razão do seu viver Sou eu Em G7+ Está tudo bem, eu acredito C#m5b/7 F#7 Eu não tô duvidando disso Riff 2 Bm Só que eu tenho muito medo F#m7 Riff 3 De me apaixonar Em F#7 Bm Esse filme já passou na minha vida A7/4 A7 D6 E você tá me ajudando a superar C#m5b/7 F#7 Bm Eu não quero ser um mal na sua vida

Compartilhe esta música: novo

QR Code
Copiar