Wake Me Up When September EndsCifra Verificada

Green Day

Tom: G
Wake Me Up When September Ends by Green Day  

  
Intro  x2       x2      x2      x2     
e-------------------------------------------------------     
B---------3--------3-------3------3---------------------     
G-------0--------0-------0------0-----------------------     
D-----5-------5-------5-------5-------------------------     
A-------------------------------------------------------     
E-------------------------------------------------------  

 	    
        x2       x2      x2      x2     
e-------------------------------------------------------     
B---------3-------3-------3-------3---------------------     
G-------0-------0-------0-------0-----------------------     
D-----5-------4-------2-------0-------------------------     
A-------------------------------------------------------     
E-------------------------------------------------------  
Summer has come and passed, the innocent can never last     
    
     
e|--------------------------------------------------------------  
B|-----5-----5-55------4-----4-44--------3-------3-----3------3-  
G|-----5-----5-55------5-----5-55--------0-------0-----0------0-  
D|---5-----5---------5-----5-----------0-------0-----0------0---  
A|-3-----3---------3-----3--------------------------------------   
E|-----------------------------------3-------3-----3------3-----    
Wake me up, when september ends     
      
        x2        x2     
-------------------------------------------------------     
---------3--------3------------------------------------     
-------0--------0--------------------------------------     
-----5-------5-----------------------------------------     
-------------------------------------------------------     
-------------------------------------------------------     
    
      x2         x2      x2      x2     
-------------------------------------------------------     
---------3-------3-------3-------3---------------------     
-------0-------0-------0-------0-----------------------     
-----5-------4-------2-------0-------------------------     
-------------------------------------------------------     
-------------------------------------------------------     
Like my fathers come to past, 7 years has gone so fast,     
     
     
     
-------------------------------------------------------     
---------5----5------4-----5---------------------------     
-------0---0-------0---0-------------------------------     
-----5-------5---5-------5-----------------------------     
-------------------------------------------------------     
-------------------------------------------------------     
Wake me up, when september ends     
     
        x2        x2     
-------------------------------------------------------     
---------3--------3------------------------------------     
-------0--------0--------------------------------------     
-----5-------5-----------------------------------------     
-------------------------------------------------------     
-------------------------------------------------------
(Apenas o dedilhado) Summer has come and passed The innocent can never last
wake me up when September ends
      x2         x2      x2      x2     
-------------------------------------------------------     
---------3-------3-------3-------3---------------------     
-------0-------0-------0-------0-----------------------     
-----5-------4-------2-------0-------------------------     
-------------------------------------------------------     
-------------------------------------------------------     
Like my fathers come to past, 7 years has gone so fast,   
like my father's come to pass seven years has gone so fast
wake me up when September ends
Em Bm here comes the rain again C G falling from the stars Em Bm drenched in my pain again C D becoming who we are (Apenas o dedilhado) as my memory rests but never forgets what I lost
wake me up when September ends
(Repita o dedilhado da introdução) summer has come and passed the innocent can never last
C Cm G wake me up when September ends
ring out the bells again like we did when spring began
C Cm G wake me up when September ends
Em Bm here comes the rain again C G falling from the stars Em Bm drenched in my pain again C D becoming who we are as my memory rests but never forgets what I lost
C Cm G wake me up when September ends
SOLO
  
E|----7----7---7------7----7---7------8----8---8----10------10------    
B|-88---88---8-----77---77---7-----88---88---8---88----8-77----7----     
G|------------------------------------------------------------------     
D|------------------------------------------------------------------    
A|------------------------------------------------------------------    
E|------------------------------------------------------------------    
     
     
E|----7----7---7------7----7---7------8----8---8---10--10--10--10--10--10--10--10     
B|-88---88---8-----77---77---7-----88---88---8-----8---8---8---8---8---8---8---8-     
G|-------------------------------------------------------------------------------     
D|-------------------------------------------------------------------------------     
A|-------------------------------------------------------------------------------     
E|-------------------------------------------------------------------------------     
     
E|--10--10--10--10--10--10--10--10-----10--10--10--10--10--10--10--10-----    
B|--7---7---7---7---7---7---7---7------8---8---8---8---8---8---8---8------      
G|------------------------------------------------------------------------    
D|------------------------------------------------------------------------     
A|------------------------------------------------------------------------     
E|------------------------------------------------------------------------    
     
E|--10--10--10--10--10--10--10--10-----------     
B|--7---7---7---7---7---7---7---7------------    
G|-------------------------------------------     
D|-------------------------------------------     
A|-------------------------------------------     
E|-------------------------------------------
        x2       x2      x2      x2     
e-------------------------------------------------------     
B---------3-------3-------3-------3---------------------     
G-------0-------0-------0-------0-----------------------     
D-----5-------4-------2-------0-------------------------     
A-------------------------------------------------------     
E-------------------------------------------------------  
Summer has come and passed, the innocent can never last
Summer has come and passed The innocent can never last
C Cm G wake me up when September ends
      x2         x2      x2      x2     
-------------------------------------------------------     
---------3-------3-------3-------3---------------------     
-------0-------0-------0-------0-----------------------     
-----5-------4-------2-------0-------------------------     
-------------------------------------------------------     
-------------------------------------------------------     
Like my fathers come to past, 7 years has gone so fast,   
like my father's come to pass twenty years has gone so fast
C Cm G wake me up when September ends (x3)

Compartilhe esta música: novo

QR Code
Copiar