21 GunsCifra Verificada

Green Day

Tom: Dm
Intro (Dm Bb F C)        
  
e|-----1-----------5---------|         
B|----------3------------5---|         
G|---------------------------|         
D|---------------------------|         
A|---------------------------|         
E|---------------------------|
(Verse: Play it with Chords / Chorus: You can try powerchords F5...)

Verso 1:

Dm Bb F C Do you know what's worth fighting for, Dm Bb F C When it's not worth dying for? Dm Bb F C Does it take your breath away Bb C And you feel yourself suffocating? Dm Bb F C Does the pain weigh out the pride? Dm Bb F C And you look for a place to hide? Dm Bb F C Did someone break your heart inside? Bb C You're in ruins
F C/E Dm One, 21 guns C Bb Lay down your arms F C Give up the fight F C/E Dm One, 21 guns C Bb F C Throw up your arms into the sky, You and I Bb F C

Verso 2:

Dm Bb F C When you're at the end of the road Dm Bb F C And you lost all sense of control Dm Bb F C And your thoughts have taken their toll Bb C When your mind breaks the spirit of your soul Dm Bb F C Your faith walks on broken glass Dm Bb F C And the hangover doesn't pass Dm Bb F C Nothing's ever built to last Bb C You're in ruins.
Chorus:
F C/E Dm One, 21 guns C Bb Lay down your arms F C Give up the fight F C/E Dm One, 21 guns C Bb F C Throw up your arms into the sky, You and I Bb F C

Ponte:

Dm Bb F C Did you try to live on your own Dm Bb F A When you burned down the house and home? Dm Bb F A Did you stand too close to the fire? Bb C Like a liar looking for forgiveness from a stone
F C/E Dm C Bb F C 2X Bb F A (Dm Bb F C)
  
e|-----1-----------5---------|         
B|----------3------------5---|         
G|---------------------------| x2         
D|---------------------------|         
A|---------------------------|         
E|---------------------------|

Verso 3:

Dm Bb F C When it's time to live and let die Dm Bb F C And you can't get another try Dm Bb F C Something inside this heart has died Bb You're in ruins.
Chorus:
F C/E Dm One, 21 guns C Bb Lay down your arms F C Give up the fight F C/E Dm One, 21 guns C Bb F C Throw up your arms into the sky, You and I Bb F C...

Compartilhe esta música: novo

QR Code
Copiar