West La Fadeaway

Grateful Dead

Tom: Am
Intro 

2X 
E-----------------------------------------------------------| 
B-----------------------------------------------------------| 
G-----------------5---5-------------------------------------| 
D---5^7--7--5--7----7------5^7--5---------------------------| 
A----------------------------------7-5----3--3--------------| 
E--------------------------------------5--------5-----------| 

E-----------------------------------------------------------| 
B-----------------------------------------------------------| 
G-------------------7-----7---------------------------------| 
D----7^9--9--7--9------9-----9--------5--5--5--7------------| 
A--------------------------------7--------------------------| 
E-----------------------------------------------------------| 

E-----------------------------------------------------------| 
B-----------------------------------------------------------| 
G-----------------5---5-------------------------------------| 
D---5^7--7--5--7----7------5^7--5---------------------------| 
A----------------------------------7-5----3--3--------------| 
E--------------------------------------5--------5-----------| 
*********************************** | ^ Slide-up *********************************** Verse Am I'm looking for a chateau, 21 rooms but one will do Am I'm looking for a chateau, 21 rooms but one will do B I don't want to buy it E Am I just want to rent it for a minute or two Verse Am I met an old mistake walking down the street today Am I met an old mistake walking down the street today B I didn't want to be mean about it E Am But I didn't have one good word to say.
Am D C West L.A. fadeaway, Am D C West L.A. fadeaway B Big red lite on the highway, F9 Em Am Little green lite on the freeway.
Verse Am Got a steady job moving items for the mob Am Got a steady job moving items for the mob B You know the pay was pathetic E Am It's a shame those boys couldn't be more copasetic
Am D C West L.A. fadeaway, Am D C West L.A. fadeaway B Big red lite on the highway, F9 Em Am Little green lite on the freeway.
Verse Am I need a West L.A. girl, already know what I need to know Am I need a West L.A. girl, already know what I need to know B Name, address, and phone number E Am Lord, and just how far to go. Verse Am West L.A. fadeaway, here's one chance you say. Am She tries to live by the Golden Rule. B Said you treat other people right, E Am Other people probably treat you cool.

Compartilhe esta música: novo

QR Code
Copiar