Tom: B
Tabbed by: bengtaaron 


Tuning: Standard 


Lead Line: 
                     
e|-11--------11--------11-----14--------14--------14------| 
B|----12-12-----12-12-----12-----12-12----12-12-----12----| 
G|--------------------------------------------------------|   (x3) 
D|--------------------------------------------------------| 
A|--------------------------------------------------------| 
E|--------------------------------------------------------| 

e|-11--------11--------11--------11-------12----11-------| 
B|----12-12-----12-12-----12-12----12-12----12-----12----| 
G|-------------------------------------------------------|    
D|-------------------------------------------------------| 
A|-------------------------------------------------------| 
E|-------------------------------------------------------| 
B F# Have you been to the other side of town? B F# Have you been to the other side of town? B F# Have you been to the other side of town? E F# B It'll bring you down

Compartilhe esta música: novo

QR Code
Copiar