Pwede Ako

Gracenote

Tom: F#
F# Bbm Pwede ako ngayon B Kahit na ano pa man yang F# Bbm Dahilan ng iyong lungkot B oras lang mabibigay ko
Post-Chorus: F# Bbm B (2x)  

Guitar 2: 
e|--------6-----------------| 
B|---7---------7----7-6-----| 
G|-6----8----6----6-----8-6-| 
D|--------------------------| 
A|--------------------------| 
E|--------------------------| 

e|--------6---------6-4-2---| 
B|---7---------7----7-6-4-4-| 
G|-6----8----6----6-------4-| 
D|--------------------------| 
A|--------------------------| 
E|--------------------------| 

Verse 1: F# Ebm C# B Isang gabing walang saysay F# Ebm C# B Mahamog na sa may labas F# Ebm Giniginaw ka kahit C# B na may kayakap F# Ebm Unan na basa na ng luha C# B Tadhana ang nakaaway B C# Walang kalaban laban B C# Naghahanap ka ng karamay
F# Bbm Pwede ako ngayon B Kahit na ano pa man yang F# Bbm Dahilan ng iyong lungkot B oras lang mabibigay ko F# Bbm Pwede ako ngayon B Kahit na saan magtungo F# Bbm Umulan man Bumagyo B Yakap ko?y iyong silong
Verse 2: F# Ebm C# B Kasama mo ko magdamag F# Ebm C# B Kwentuhan tayo ng tapat F# Ebm C# B tinik nawala sa lalamunan F# Ebm O Siya ang may gawa C# B Kailangan mo lang huminga B C# Walang kalaban laban B C# Naghahanap ka ng karamay (Repeat Chorus 2) Bridge: C# Hanggang bumuhos na B C# B ang luha at matuyong araw C# B B Ngingiti ng dahan dahan (Repeat Post-Chorus)
F# Bbm Pwede ako ngayon B Pwede ako ngayon F# Bbm Pwede ako Pwede ako B Pwede ako ako ngayon F# Bbm Tara na.. B Tara na.. F# Bbm Tara na.. B Tara na.. F# Bbm Tara na.. B Tara na.. F# Bbm Tara na.. B F# Tara na..

Compartilhe esta música: novo

QR Code
Copiar