Tristessa

Gipsy Kings

Tom: C#
Capotraste na 6ª casa
	 



( 
) 

(LYRICS are getting closer.  If you have any ideas, please write!!) 

Intro: 

 
                                     C# 

-----------------------------------------------------| 
-----------------------------------------------------| 
-----------------------------------------------------| 
-----11--11--10-h-11--11-----------------------------| 
-----9-----------------------------------------------| 
9----------------------------------------------------| 



   				C (C7) 

-----------------------------------------------------| 
-----------------------------------------------------| 
-----------------------------------------------------| 
----10--10--8-h-10--10----------11-s-10--------------| 
----10-----------------------------------------------|(Only on 4th of repeat) 
-8---------------------------------------------------|
(repeat 4 times) F#m Triste Bbm Ay ni llorando del amor que es para ella C (C7) Triste ese amor Hoy he sufrido Voy a llorar F#m Por si tan mal Eb Ee, ee, ee, ee, ee, ee, ee C# Ee, ee, ee, ee, ee, ee, ee C (C7) Ee, ee, ee, ee, ee, ee, ee (repeat) Fm Ya aprend' que el amor no se ablanda Bbm _____________ Eb C# C7 Ya aprend' que el amor no se ablanda Fm Eb Todo hay, todo hay que me falta tu honor. C# Todo hay, todo hay que me falta tu honor. C7 Todo hay, todo hay que me falta tu honor. Fm Ay, pasan las penas. Eb Ay, no la quer'a a Mar'a Lozano. C# Ay, no la quer'a a Mar'a Lozano. Eb C# C7 Ay, porque te aaaaa aaaaa mo. C# C7 Mariiiiiiiia, ay tu cara bonita. C# Eb / C# / C7 Mariiiiiiiia, ay tu cara bonita. C# C7 Ay de tus cabellos, tu cara bonita. C# C7 Ay de tus cabellos, tu cara bonita. Fm Eb Ay, porque te amo. C# Mar'a Lozano C7 Porque te amo. Fm Eb Ay, no la quer'a C# Olvidar C7 Mar'a Lozano Lai lo lai lo lai lo lai.... --------------------------------------------------------------------------------

Compartilhe esta música: novo

QR Code
Copiar