Tom: F#m
Tab - Intro 

   Em 
E|----------------------------------------------------| 
B|-----0----------------------------------------------| 
G|-0-------0----------------------------------------0-| 
D|-2-----------4-h-5-p-4--2-------------0--h--2--4----| 
A|-2------------------------------2--3----------------| 
E|-0--------------------------------------------------|
   D 
E|----------------------------------------------------| 
B|----------------------------------------------------| 
G|----2-----------------------------------------------| 
D|-4-----4--2-h-4--p--2--0------------------2-h-4-p-2-| 
A|---------------------------------0--2--3------------| 
E|----------------------------------------------------|
   C 
E|----------------------------------------------------| 
B|----------------------------------------------------| 
G|----------------------------------------------------| 
D|-2--2--2--0-h-2--0--------------------0--0--0-h-2---| 
A|-----------------------------3--2--3----------------| 
E|----------------------------------------------------|
                             A7 
E|----------------------------------------------------| 
B|---------------0-h-1-p-0-----0----------------------| 
G|---------2--2-------------2-------------------------| 
D|----------------------------------------------------| 
A|---3--2---------------------------------------------| 
E|----------------------------------------------------|
E|-9---9---9---9---9---9---9---9---8---8--------------| 
B|-8---8---8---8---8---8---8---8---8---8--------------| 
G|-9---9---9---9---9---9---9---9---9---9--------------| 
D|-10--10--10--10--10--10--10--10--10--10-------------| 
A|-8---8---8---8---8---8---8---8---8---8--------------| 
E|----------------------------------------------------|
Em Ay juganet la de mi vida D Ay juganet la de mi corpe C A la gitana de mia vida B7 A la gitana de mi amor Em Ay capita que de mi esperas su nina D Que tenias un gran allegria C Que se imagine su mia muy bella B7 La quel diras su nom de mi Em D Oy venga aqui venga ya tu bonita C Oy venga aqui venga ya tu bonita B7 Oy venga aqui venga ya tu bonita Em Ahora, ahora Mira esta gitana Mira como baila D Mira que tiene gracia La carmena maya De su forma de vivir De su pronto de sentir C Mira la gitana La carmena maya B7 Mira la gitana Em Di me ya si me quieres D O si no me despiertao C Di me si o tu me quieres B7 Que yo voy a decir lo

Compartilhe esta música: novo

QR Code
Copiar