La Montaña

Gipsy Kings

Tom: A
Intro: 
             Amaj7                                              D 
|-------------(2)-----------------------------------------| 
|-----5------(2)-------3--h--5--p--3--p--2--------3-------| 
|2-----------(2)---------------------------------2----2---| 
|2-----------(2)--------------------------------------4---| 
|------------(4)---------------------------------------5--| 
|5-----------(5)------------------------------------------| 
           F#m                    E7                        Amaj7 
|-------------------------------4---------------------2----| 
|2---------2-------------------3---------------------2-----| 
|----------2--------2----------4-------4------------2------| 
|----------4-------------------2---------------------2-----| 
|----------4------------------------------------------4----| 
|----------2------------------------------------------5----| 
(Repeat intro once) 
A7M D Yo voy caminando F#m E7 A7M A la montana donde nací. (repeat) F#m No puedo vivir C#m Al otro lado del camino. D En el cielo E7 A7M Yo miraba una estrella. F#m No puedo vivir C#m Al otro lado del camino. D Quedo vivo, E7 A7M Paso tiempo, oh oh.. (Chorus, verse, etc.) Last 4 verses: A7M / D / C#m / D

Compartilhe esta música: novo

QR Code
Copiar