A Ti A Ti

Gipsy Kings

Tom: F
                                  
Intro : 
------5-----------5-----------------| 
8-----------8----------6--------5---| 
--------------------------------5---| 
--------------------------------5---| 
8----(8)----7----(7)----5-------7---| 
--------------------------------8---| 

------5-----------5-----------------| 
8-----------8----------6--------5---| 
--------------------------------5---| 
------------------------------------| 
8----(8)----7----(7)----5-----------| 
--------------------------------8---| 

Repet 4 : 
-------5------------5-----------5---|
8------------8-----------6----------| 
------------------------------------| 
------------------------------------| 
8----(8)----7----(7)----5-----------| 
---------------------------------8--| 
F Empecé por aquella rambla, C De la rambla de Barcelona Me encuentré una chiquita F Y la llevo yo a mi casa. (repeat verse) C Yo te quiero a ti a ti. Dm Bem bem bem. C Yo te quiero a ti a ti. Dm Bem bem bem. C Yo te quiero a ti a ti. Am Solamente a ti a ti. D#7M C7 Sabes bien que yo te quiero mujer. F Tú eres pa'mi.

Compartilhe esta música: novo

QR Code
Copiar