Tom: E
Intro Ebm 

E|----------------------------------------| 
B|---7---11-9-9---7---9-7-7-6/7-6-4-2-----| 
G|-8---8--------8---8---------------------| 
D|----------------------------------------| 
A|----------------------------------------| 
E|----------------------------------------|
E|-9-11-9-7-9-7-6-7-6---------------------| 
B|--------------------9-11-9-7-9-7-7-6----| 
G|-------------------------------------6-8| 
D|----------------------------------------| 
A|----------------------------------------| 
E|----------------------------------------|
Ebm Sei que são nove dias nove penas G#m Enquanto a espera aumenta Bb Ebm O mundo se faz esquecido G#m Na terra dos homens F#m F Ebm De luzes coloridas C#m Enquanto a família reza novena As notícias que montam cavalos ligeiros Vão tomando todo o mundo E na casa do lar Esquecidos ficam todos longe de saber F# G# Bb Ebm O que foi que aconteceu Riff E ali ninguém percebeu Tanta pedra de amor cair Tanta gente se partir No azul dessa incrível dor Enquanto a família reza alguém Segue e novena No abismo de preces repetidas No sossego de uma agonia sem fim Ebm Nas horas de Deus amém Padre, Filho, Espírito Santo Essa é a primeira cantiga Que nessa casa eu canto C#m Enquanto a família reza novena Nove dias se passaram marcados Sem tempo sem nada e sem fim No meio do mundo, do medo E de mim desespedaçado em tanto verso F#m G# Bb Ebm Então de orações a sala se faz Riff E lá fora se esquece a paz Uma bomba explodiu por lá Sobre os olhos do meu bem E assim me mata também Enquanto a novena chega ao fim Bandas bandeiras Benditos passando pela vida E a novena se perde esquecida de nós Ebm Nas horas de Deus amém Padre, Filho, Espírito Santo Essa é a última cantiga Que nessa casa eu canto (Riff)
B|--7-9-7-6-11-------7-9-7-6---------------------9-9-9-9-11-7--| 
G|8------------8-8-8-----------8-8-8-6-----6-8-8--------------8| 
D|---------------------------8---------8-8---------------------| 
A|-------------------------------------------------------------| 
E|-------------------------------------------------------------|

Compartilhe esta música: novo

QR Code
Copiar