Tom: B
Intro: 
E|-----------------------------------------------------------------------------------------------------------| 
B|-----------------------------------------------------------------------------------------------------------| 
G|------------------------------------------------------------------------------------------------------------ 
D|-------4----------4------4--------4---------4-------4------2--------2---------------2---------2------------| 
A|----2--------2----------------2--------2----------------2-------2------2-------2----------2----------------| 
E|-0-------0-----------0-----3-------3-----------3-----0-------0-------0------3----------2-------------------| 

B D oque quer que tem esplicação cientifica para a A C E Criação do mundo mas não sabem da verdade B D Humanos que querem paz mas usam armas . A C E Nos somos pecadores temos que aceitar mas assim B D Não vai dar nos precisamos de deus. E F Cada erro uma destruiçao . ) 2X E C Am F C Precisamos de Deus para nos mostrar o caminho para pararmos de pecar .
E|-----------------------------------------------------------------------------------------------------------| 
B|-----------------------------------------------------------------------------------------------------------| 
G|------------------------------------------------------------------------------------------------------------ 
D|-------4----------4------4--------4---------4-------4------2--------2---------------2---------2------------| 
A|----2--------2----------------2--------2----------------2-------2------2-------2----------2----------------| 
E|-0-------0-----------0-----3-------3-----------3-----0-------0-------0------3----------2-------------------| 

E|--7-9-10-9-7----7-9-10-9-7---7-9-10-9-7---7-9-10-9-7---7-9-10----------------------------7-9-10---------| 
B|-------------10------------9------------8------------7---------7-9-10-----------7-9-10------------------| 
G|-----------------------------------------------------------------------7-9-10---------------------------- 
D|--------------------------------------------------------------------------------------------------------| 
A|--------------------------------------------------------------------------------------------------------| 
E|--------------------------------------------------------------------------------------------------------| 

B D oque quer que tem esplicação cientifica para a A C E Criação do mundo mas não sabem da verdade B D Humanos que querem paz mas usam armas . A C E Nos somos pecadores temos que aceitar mas assim B D Não vai dar nos precisamos de deus. E F Cada erro uma destruiçao . ) (2x) E C Am F C Precisamos de Deus para nos mostrar o caminho para pararmos de pecar .

Compartilhe esta música: novo

QR Code
Copiar