Tom: A
Capotraste na 2ª casa
 
 


Intro: Fmaj7 A 


Verse 
A             G6                  A 
She's a star it is no use telling her 
A             G6                       
for she knows you're wasting all her time 
A            G6                   A 
She's a star by rights, everybody knows 
A           G6                 
that she is brilliant how she shows 
A                        G6   
'true embarrasment' like all the things she does pretend 
A                           G6 
Sometimes you can't believe all the ways that she can be 


Pre-Chorus 
C                  D 
You can't make her day 
              Fmaj7 
...but that's ok 


A Dsus2 E D Oh Oh Oh Oh A She's a star A Dsus2 E D Oh Oh Oh Oh A Dsus2 E D Oh Oh Oh Oh A She's a star A Dsus2 E D Oh Oh Oh Oh
Verse A G6 A She's a star you can see it in her eyes A G6 when she smiles a soul like paper thin A G6 She is known everywhere everybody stares and stares Pre-Chorus C D You can't make her day Fmaj7 ...but that's ok
A Dsus2 E D Oh Oh Oh Oh A She's a star A Dsus2 E D Oh Oh Oh Oh
Bridge B How can you say D That's her price to pay B D with no way to say 'no'
A Dsus2 E D Oh Oh Oh Oh A She's a star A Dsus2 E D Oh Oh Oh Oh A Dsus2 E D Oh Oh Oh Oh A She's a star A Dsus2 E D Oh Oh Oh Oh A Dsus2 E D Oh Oh Oh Oh A She's a star A Dsus2 E D Oh Oh Oh Oh
  A                                       D 
e-------0----------0-------|-------0----------0------| 
B---------0----------0-----|---------0-----------3---| 
G----2----------2----------|----2-----------2--------| 
D--2---------2-------------|--2-----------0----------| 
A--------------------------|-------------------------| 
E--------------------------|-------------------------|  

  A                                       D 
e-------0----------0-------|-------0----------0------| 
B---------0----------0-----|---------0-----------3---| 
G----2----------2----------|----2-----------2--------| 
D--2---------2-------------|--2-----------0----------| 
A--------------------------|-------------------------| 
E--------------------------|-------------------------|
Outro A Dsus2 E D 'true embarrasment' like all the things she does pretend A Dsus2 E D Sometimes you can't believe all the ways that she can be A Dsus2 E D Oh Oh Oh Oh A She's a star A Dsus2 E D Oh Oh Oh Oh A Dsus2 E D Oh Oh Oh Oh A She's a star

Compartilhe esta música: novo

QR Code
Copiar