Nosso GritoCifra Verificada

Fundo de Quintal

Tom: A
   
Intro: A A7M A6   

d|---------------------------------------------------
B|------------------------------------------------5--
G|-2--------1/2--2---2/4--4--4/6--6--6-6--4--6--7----
D|----6/2--------------------------------------------


d|-7---4---2---6--7--7--9--9--4--5--6--
B|-------------------------------------
G|-------------------------------------
D|-7---4---2---6--7--7--9--9--4--5--6--
D7M Você já não quer mais amar, sem rumo, tá sem direção A7M A6 Se encontra perdido no cais A7M A6 Tentanto encontrar solução D7M Amigo não vá se entregar, eu sei tá ruim de aguentar A7M A6 Mas deus tá aqui pra ajudar A7M A6 Não deixe esse barco afundar D7M Êta vida, eta vida de cão A7M A6 A gente ri, a gente chora A7M A6 A gente abre o coração D7M A7M A6 Êta vida, eta vida de cão D7M A gente tem mais que lutar, seguir a nossa diretriz A7M A6 Sonhar e tentar ser feliz A7M A6 Viver pra cantar e sorrir D7M É hora da gente assumir,é hora de darmos as mãos A7M A6 O negro ao branco se unir A7M A6 Gritando numa só razão
d|---------------------------------------------------
B|------------------------------------------------5--
G|-2--------1/2--2---2/4--4--4/6--6--6-6--4--6--7----
D|----6/2--------------------------------------------

------------------------------------------------------
------------5-----------3--2-------2------------------
--------2----------------------4----------------------
--0--4------------------------------------------------


----------------
----------5--5--
-------2--------
-0--4-----------


------------
-3p2-----2--
------4-----
------------ 

Compartilhe esta música: novo

QR Code
Copiar