Diferente dos Anjos

Fruto Sagrado

Tom: B9
INTRO: 

*/ O 'Riff 1' é usado na introdução da música...na versão original!, e 
   já o 'Riff 2' é usado na primeira parte da música que é dedilhada! * 

Riff 1 

        B9        E        B9          E 
e|------------------------------------------------- 
B|------------------------------------------------- 
G|----------4----------4---------4---------4------- 
D|--------4----4-----4---4-----4---4-----4---4----- 
A|------2--------------------2--------------------- 
E|-----------------0------------------0------------ 

Riff 2 

       Abm       Gb          D#m       E            
e|------------------------------------------------- 
B|------------------------------------------------- 
G|----------4----------4---------4---------4------- 
D|--------4---4------4---4-----4---4-----4---4----- 
A|---------------------------6--------------------- 
E|------4----------2------------------0------------ 
*/ Você pode optar tocar este trecho abaixo detilhado, como mostra acima, ou na forma de nota base como esta abaixo... mas na música original esse trecho é dedilhado até antes de entrar no Refrão!! * Abm Gb7 D#m E Corri contra o tempo atrás do vento sem saber viver Abm Gb7 D#m E Sem saber que desse mundo nada nada vou levar Abm Gb7 D#m E Me deixei enganar fui traido por meu coração Abm Gb7 D#m E Me deixei levar quase afundei na ilusão Abm Gb7 D#m E Ainda bem que você me achou Abm Gb7 D#m E Ainda bem que você me incêndiou Abm Gb7 D#m E Você me tocou, ressuscitou meus sonhos Abm Gb7 D#m E Você me tocou trouxe vida ao meu deserto
B9 Abm7 Gb7 E Agora eu sei, a razão de agente estar aqui, é é... B9 Abm7 O que nos faz diferentes dos anjos é o amor Gb7 E A possibilidade de amar, quero você!
(REPETE INTRODUÇÃO) Abm Gb7 D#m E Quero ser muito mais que seu melhor amigo Abm Gb7 D#m E Alguém que você possa acreditar Abm Gb7 D#m E Quero revelar meus defeitos sem ter medo Abm Gb7 D#m E Quero todo dia aprender a te amar Abm Gb7 D#m E É como se a gente soubesse que ia acontecer Abm Gb7 D#m E Só rolou certeza, a surpreza nem passou por perto Abm Gb7 D#m E Você me tocou ressuscitou meus sonhos Abm Gb7 D#m E Você me tocou luz e vida ao meu deserto B9 Abm Gb7 E Agora eu sei, a razão de agente estar aqui, é é... B9 Abm O que nos faz diferentes dos anjos é o amor Gb7 E A possibilidade de amar... A Esse amor me livrou dos meus espinhos E Tirou cada praga do caminho B Me deu outro paraíso, me ensinou a ser feliz A E Esse amor me livrou dos meus espinhosss... ahahh... ehehhh... G A me levou pro paraíso... B9 E9 Ah, Ah... Ah, Ahn... Ah, Ah... B9 E9 Ah, Ah... Ah, Ahn... Ah, Ah... B9 Abm Gb7 E Agora eu sei, a razão de agente estar aqui, é é... B9 Abm O que nos faz diferentes dos anjos é o amor Gb7 E INTRO: B9 E A possibilidade de amar, quero vocêêê... B9 Quero vocêê...

Compartilhe esta música: novo

QR Code
Copiar