Segredos

Frejat

Tom: G
INTRO: (3x) 
   G 
e|-7--3--5--------| 
B|----------7-5-3-| 
G|----------------|
G A4/11 C9 D4 23h25 13 Eu procuro um amor que ainda não encontrei G D/F# C9 23h25 13 Diferentes de todos que amei G A4/11 C9 23h25 13 Nos seus olhos quero descobrir uma razão para viver D4 G D/F# C9 E as feridas dessa vida eu quero esquecer Em7 D Pode ser que eu a encontre numa fila de cinema Em7 D C9 e|-3-3-3/5-5-5-5/8-8-8-8/10-| Numa esquina ou numa mesa de bar B|-3-3-3/5-5-5-5/8-8-8-8/10-|
G D/F# C9 Procuro um amor que seja bom pra mim G D/F# C9 Vou procurar eu vou até o fim Em7 E eu vou tratá-la bem D Pra que ela não tenha medo C9 G/B Am B|-5/7-5-| Quando começar a conhecer os meus segredos
G|-4/6-4-| G Uuhummm...
e|-7--3--5--------| 
B|----------7-5-3-| (3x) 
G|----------------| 
D|-9--5--7--------| 
A|----------9-7-5-| 
E|----------------|
G A4/11 C9 D4 23h25 13 Eu procuro um amor uma razão para viver D4 G D/F# C9 E as feridas dessa vida eu quero esquecer Em7 Pode ser que eu gagueje D Sem saber o que falar Em7 Mas eu disfarço D C9 e|-3-3-3/5-5-5-5/8-8-8-8/10-| E não saio sem ela de lá B|-3-3-3/5-5-5-5/8-8-8-8/10-| REFRÃO
SOLO: (G D C9  G D C9 G/B Am) 
                   Hmmhmhmm... 
e|---------12\5-5~-7-7\3-3-~--------------------------------------12\5-5~ 
B|-8-/12~-----------------------8-8-10-8---8----8---11-10-8--12~--------- 
G|--------------------------7/9----------9----9---9---------------------- 
D|----------------------------------------------------------------------- 
A|----------------------------------------------------------------------- 
E|----------------------------------------------------------------------- 
 Humhm... 
---------------------------------------14----14-14----14----19-17-15----15~| 
-5/8-8-8-11p10p8-8----8---8-10-5~/-16-----16-------16----16----------16----| 
--------------------9---9--------------------------------------------------| 
---------------------------------------------------------------------------| 
---------------------------------------------------------------------------| 
---------------------------------------------------------------------------|
G D/F# C9 Procuro um amor que seja bom pra mim G D/F# C9 Vou procurar eu vou até o fim G D/F# C9 Eu procuro um amor que seja bom pra mim G D/F# C9 G Vou procurar eu vou até o fim...

Compartilhe esta música: novo

QR Code
Copiar