Amor Pra RecomeçarCifra Verificada

Frejat

Tom: G
		  

Intro: G  D9/F# C9  (2x)

e|-------------------------------------------------------------------------|
B|-------------------------------------------------------------------------|
G|--4--5--7-----7--------7-----------5--4--5--7------7----------7----------|
D|-----------5-----0--4-----4--0--2---------------5-----7--0--5------5-0-2-|
A|-------------------------------------------------------------------------|
E|-------------------------------------------------------------------------|
G A9 Eu te desejo não parar tão cedo C9 Pois toda idade tem prazer e medo G A9 E com os que erram feio e bastante C9 F9 Que você consiga ser tolerante Pré-refrão: Em7 Quando você ficar triste D Em7 A9 Que seja por um dia, e não o ano inteiro Em7 D E que você descubra que rir é bom, Em7 A9 mas que rir de tudo é desespero
G A7sus4 D Dsus4 D Desejo que você tenha a quem amar C9 Em7 E quando estiver bem cansado G A7sus4 D Dsus4 D Ainda, exista amor pra recomeçar G D9/F# C9 Pra recomeçar
( G  D9/F# C9 ) (2x)

e|------------------------------|
B|------------------------------|
G|-4-5-7-----7---------7--------|
D|--------5------5-0-4----5-0-2-|
A|------------------------------|
E|------------------------------|
Primeira parte com variação: G A9 Eu te desejo, muitos amigos C9 Mas que em um você possa confiar G A9 E que tenha até inimigos C9 F9 Pra você não deixar de duvidar Em7 Quando você ficar triste D Em7 A9 Que seja por um dia, e não o ano inteiro Em7 D9 E que você descubra que rir é bom, Em7 A9 mas que rir de tudo é desespero
G Am7 D9/F# Desejo que você tenha a quem amar C9 Em7 E quando estiver bem cansado G Am7 D9/F# Ainda, exista amor pra recomeçar G A9 Pra recomeçar
Segunda Parte: D Eu desejo que você ganhe dinheiro C9 Pois é preciso viver também D E que você diga a ele, pelo menos uma vez, Em7 C9 C/B G Quem é mesmo dono de quem
e|------------------------------------------------------3-|
B|------------------------------------------------------3-|
G|-5-5-5-5-5-5-5-5/7--7-7-7-7-7-7-7-7-7-7-7-7--5-4-5-4--0-|
D|------------------------------------------------------0-|
A|-3-3-3-3-3-3-3-3/7--5-5-5-5-5-5-5-5-5-5-5-5--3-2-3-2--2-|
E|------------------------------------------------------3-|
G Am7 D9/F# Desejo que você tenha a quem amar C9 Em7 E quando estiver bem cansado G Am7 D9/F# Ainda, exista amor pra recomeçar G A9 Pra recomeçar
( G D9/F# C9 G )

Compartilhe esta música: novo

QR Code
Copiar