Good As Gold

Frankie Ballard

Tom: G
Intro: G   G     

Verse: 
G 
He can buy you nice things 
                      C 
But I can make your knees weak 

G 
  So he has a house on a hill 
                C 
I got what you really need 
  
                           Am 
‘Cause that view from the hill 
                 C 
Lookin' at the stars 
             G 
Ain't gonna fill 
                      D 
That valley in your heart 

 Em        Am   G    C 
Where the wild wind blows 
         G    G 
Good as gold 

Yeah 


Verse: 
 G 
Now he can take you ‘round the world 
                      C 
But I can take your breath away 

G 
  And he can talk all he wants 
                C 
I don't need a word to say 

                             Am 
But you take can take every word  
     C 
He speaks 
                   G 
Wouldn't be worth any more  
                   D 
Than one look from me 

 Am   G   C 
Soft and slow 
         G   G 
Good as gold 

Yeah 


BREAK: 
C 
 No use in countin' 
                      G 
All the diamonds you want 

C 
‘Cause steady as a mountain 
                                D 
It's one in the rough that you don't 

Am  G    C 
Set in stone 
           Am   G     C 
Where the wild wind blows 
         G   G 
Good as gold 

            Am 
Oh good as gold 
 C 
Yeah 
         G 
Good as gold 

            Am     C        G 
Oh good as gol-old oh yeah-eah 


Instrumental/Solo: 
G   Am   G C 


OUTRO: 
    G 
Oh yeah yeah 
            Am   C 
Oh good as gold 
         G 
Good as gold 
            Am   C 
Oh good as gold 
         G 
Good as gold 
            Am  C       G 
Oh good as gold   yeah yeah 

    G                          G 
Oh, he can buy you nice things 
                      C 
But I can make your knees weak 

INTRO RIFF

e|----------------|----------------------| 
B|----------------|-------------12-------| 
G|-------14----14-|-------14-------14----| 
D|----12----12----|-12-------12-------12-| 
A|-10-------------|----10----------------| 
E|----------------|----------------------| 


e|----------------|----------------------| 
B|----------------|-------13----12-------| 
G|-------14----14-|----------------14----| 
D|----12----12----|-12-------12-------12-| 
A|-10-------------|----10----------------| 
E|----------------|----------------------|

Compartilhe esta música: novo

QR Code
Copiar