Dont You Wanna Fall

Frankie Ballard

Tom: D
Intro: 
     D   A   D  Bm   D  A G 
E --------------------------- 
B --5/10-5-5/10-3---3/7-5-3-- 
G --------------------------- 
D --------------------------- 
A --------------------------- 
E --------------------------- 

     D   A   D  Bm   D  A  
E --------------------------- 
B --5/10-5-5/10-3---3/7-5---- 
G --------------------------- 
D --------------------------- 
A --------------------------- 
E --------------------------- 


Verse: 
       D              A             G   D 
I'm a high wire act, without a net 
       D                A           G   D 
I'm a tips all in on a losing bet 
       Bm               A           Bm  A 
I'm a minor cord on an old guitar 
     D                      A         G   D 
And I'm one too many in a crowded bar 


Pre-Chorus 
                 G 
Don't you wanna fall 
                 A 
Don't you wanna fall 

G D Fall down here where A Bm A An angel should know better than to G D A Bm A Walk around this world with me G D A Bm A All the girls love to talk about forever G D A From way up there the talk is always cheap Em Em D Bm G Don't you wanna fall D Don't you wanna fall
Instrumental:
     D   A   D  Bm   D  A G 
E --------------------------- 
B --5/10-5-5/10-3---3/7-5-3-- 
G --------------------------- 
D --------------------------- 
A --------------------------- 
E --------------------------- 
Verse: D A G D You're that first good buzz at seventeen D A G D Well, you're the good guy winning on the movie screen Bm A Bm A You're a candle burning in the church in Rome D A G D You're a first class ticket on the last plane home Pre-Chorus G But don't you wanna fall A Don't you wanna fall
G D Fall down here where A Bm A An angel should know better than to G D A Bm A Walk around this world with me G D A Bm A All the girls love to talk about forever G D A From way up there the talk is always cheap Em Em D Bm G Don't you wanna fall Bm Ah, don't you wanna fall
Instrumental/Solo: Bm D A A Bm Bm D A A A
(G) D Fall down here where A Bm A An angel should know better than to G D A Bm A Walk around this world with me G D A Bm A All the girls love to talk about forever G D A From way up there the talk is always cheap Em Em D Bm G Don't you wanna fall D Baby, don't you wanna fall
OUTRO: 
     D   A   D  Bm   D  A G 
E --------------------------- 
B --5/10-5-5/10-3---3/7-5-3-- 
G --------------------------- 
D --------------------------- 
A --------------------------- 
E --------------------------- 

     D   A  A A  D   
E --------------------- 
B --5/10-5-7br-5-3----- 
G --------------------- 
D --------------------- 
A --------------------- 
E ---------------------

Compartilhe esta música: novo

QR Code
Copiar