Enquanto Houver Amor

Forrozão Tropykália

Tom: Eb
Intro Eb  Cm  Eb  Cm 
        Eb  Cm  Eb  Cm  

Tab - Intro 

E|------------8--------------------------------| 
B|-----11------8~--------8\9---8---6---8p6-----| 
G|-------------------------------------------8~| 
D|---8-----------------8-----------------------| 
A|---------------------------------------------| 
E|---------------------------------------------|
E|------------8--------------------------------| 
B|-----11------8~---8-8-9-11-------------------| 
G|--------------------------------8h10---8-----| 
D|---8-----------------------------------------| 
A|---------------------------------------------| 
E|---------------------------------------------|
E|---------------------------------------------| 
B|-------8\9----8---6---8p6--------------------| 
G|-----------------------------8~--------------| 
D|---8-----------------------------------------| 
A|---------------------------------------------| 
E|---------------------------------------------|
Eb Cm Estou só sem você aqui Eb A saudade me sufoca Cm Ab E me faz sentir um vazio no peito Bb Já não tem mais jeito solidão Eb Cm Chega noite enlouqueço Eb Cm Pois aqui eu já não tenho o seu beijo Ab Olha só como estou se o amor acabou Bb Me diz baby Ab Bb Eu estou sofrendo demais Gm Cm Eu te amo, eu te quero pra sempre Fm Bb Pois sem você eu não consigo viver Ab Bb Vem porque eu te amo demais Gm Cm Ab Pois enquanto houver amor Gm Ab Coração vai bater só por ti Cm Gm Muito mais, se vai Ab Bb Eb Vem por que te amo demais ( Eb Cm Eb Cm )
Tab - Solo 

E|--------13--13---------11--13\15---| 
B|---11--------------11--------------| 
G|-----------------------------------| 
D|-----------------------------------| 
A|-----------------------------------| 
E|-----------------------------------|
E|---10h11---------------------------| 
B|-------------13--------------------| 
G|-----------------------------------| 
D|-----------------------------------| 
A|-----------------------------------| 
E|-----------------------------------|
Eb Cm Essa vida de ilusão Eb Cm Eu te entreguei o meu coração Ab Onde quer que vá Vou te esperar Bb Meu amor Eb Cm Os meus dias estão tristes Eb Cm Sem você o meu viver não existe Ab Nada mais satisfaz Bb Só você é paz que preciso Ab Bb Eu estou sofrendo demais Gm Cm Eu te amo, eu te quero pra sempre Fm Bb Pois sem você eu não consigo viver Ab Bb Vem porque eu te amo demais Gm Cm Ab Pois enquanto houver amor Gm Ab Coração vai bater só por ti Cm Gm Sempre mais, muito mais Ab Bb B I love you forever F# E quando eu te encontrar Abm O mundo vai parar F# Pra gente se amar B Oh baby F# Eu amo amar você Ab Não quero te perder assim Bb Eu te quero aqui bem perto de mim Ab Bb Eu estou sofrendo demais Gm Cm Eu te amo eu te quero pra sempre Fm Bb Pois sem você eu não consigo viver Ab Bb Eu estou sofrendo demais Gm Cm Eu te amo eu te quero pra sempre Fm Bb Pois sem você eu não consigo viver Eb Sem você o que eu faço?

Compartilhe esta música: novo

QR Code
Copiar