Costa Verde

Forfun

Tom: A
 
Intro: 
 
A|--0-7-----0-5--0-4--0-2--0-2-4-----------------| 
 
2 vezes antes de entrar a guitarra base, e depois continua até o final da intro. 
 
Intro (base) - A, E, F#, D  
                      A, E, F#, D, E 
 
A, E, F#, D 
Se já não fosse tarde eu voltava lá , 
Ia tentar dizer o que eu esqueci . 
E apesar de tudo não é novidade,  
Enquanto o tempo passa espero que... 
 
E, A, D, F#, E, D 
Que um dia ela possa se ligar, 
Na porta da escola ela passa e me da bola. 
E eu me pergunto o que eu faço, 
Se eu não sei o que falar...  
 
F#, E, D, E 
Vamos pra Ilha Grande em Julho, 
Correr esquecer de tudo, 
Ver o mundo mais azul, 
Pelados na praia do sul... 
 
A, E, F#, D 
Me dê a mão ( me dê a mão),  
Vamos por aí, 
Não pense em nada agora, 
Que já passou da hora, 
Eu quero tanto te fazer sorrir... 
 
Base : A, E, F# ,D 
A|--0-7-----0-5--0-4--0-2--0-2-4----------------|  
A|--0-7-----0-5--0-4--0-2--0-2-4----4---4/7------------|  
 
A, E, F#, D 
G|-------6--7---9---7-6-7-------- | 
D|----7---------------------------- | 
 
E aquele dia em Búzios eu devia ter, 
Beijado ela ao invés de ignorar. 
Talvez se eu fosse eu mesmo, ou fosse mais maduro, 
Eu tivesse a chance de falar... 
 
E, A, D, F#, E, D 
 
Será que é tão difícil enxergar? 
É sempre a mesma história, 
E o seu descaso só piora, 
Mas eu sei que as coisas boas vão chegar 
Se eu esperar... 
 
F#, E, D, E 
 
O mundo é um lugar injusto, 
Quase sempre eu tomo um susto, 
Vejo as fotos no mural: 
Ela faz meu mundo mais legal... 
 
A, E, F#, D 
 
Me dê a mão (me dê a mão), 
Vamos por aí, 
Não pense em nada agora, 
Que já passou da hora, 
Eu quero tanto te fazer sorrir... 
 
SOLO: 
 
e|------------------------------------------------------------------------------------ 
B|--------------------------------------------------------------5----3--2-----2-3-2-0- 
G|-------------------------------------------------------------------------2-4------- 
D|------------------------------------------------------------------------------------ 
A|-0--7---0-5--0-4--0-2--0-2-4---0--7---0-5--0-4--0-2--0-2-4-------------------------- 
 
 
e|---------------------------------------------------------------------------------- 
B|-2--3/5-3--2-0-2-3/5-3-2-3---9/10---9/10----9/10--9/10--9/10--9/10--12-10--------- 
G|----------------------------------9-------9------------------------------------11- 
D|---------------------------------------------------------------------------------- 
 
G|--------7/9-9h-9-----7/9-9h-9-7--7-6-7-9- 
D|----7/9-----------7/9--------------------
F#, E, D, E Vamos pra Ilha Grande em Julho, Correr esquecer de tudo, Ver o mundo mais azul, Pelados na praia do sul... A, E, F#, D Me dê a mão( me dê a mão), Vamos por aí, Não pense em nada agora, Que já passou da hora, Eu quero tanto te fazer sorrir... A, E, F#, D Me dê a mão( me dê a mão), Vamos por aí, Não pense em nada agora, Que o sol já foi embora O teu sorriso é o que me faz sorrir A, E, F#, D A E F# D A O teu sorriso é o que me faz sorrir... _______________________________________________________ Contribuição: Eduardo da Rocha Deschamps Cavalcanti de Oliveira([email protected])

Compartilhe esta música: novo

QR Code
Copiar