Cara EspertoCifra Verificada

Forfun

Tom: B
(tente também B5 G#5...) 

B             G#m 
Antes era garotinha apaixonada  
E                   F# 
Que me ligava todo dia preocupada  
B                       G#m            
Com as coisas que eu fazia na madrugada  
E                  F#             (G#m) (F#/A#) B     
Mas no fundo, já sabia que eu não valia nada 

B F# E F# 2x 

B                            F#  
Hoje tenho a vida que sempre quis,  
                    E  
Mas será que sou feliz?  
                   F#  
Acho que nunca saberei  
B                            F#  
Garotas ligando e correndo atrás   
           E          F#  
Já não me satisfazem mais  
  
          G#m  
It´ not ok  
                       E  
Sinto falta de coisas que perdi,  
     B                       F#/A#           (F#) 
Do lugar onde eu nasci, do colégio que estudei  
G#m                     E  
Amigos vão sem se despedir  
                        B              F#/A#  
E você já não me faz sorrir, e hoje eu sei  
           
          E                                  F#  
Que agora eu, que sempre me achei um cara esperto,  
                      B    F#/A#  
Quando vejo você por perto  
G#m                    F#  
Perco a fala e sinto calafrios  
E                     F#           B            F#/A#   G#m  F#  
E não paro de questionar sobre as voltas que a vida dá  
        E        F#      F#/A#            B  
E como tudo mudou de uns tempos pra cá

B F# E F# 2x  
   
B                                                  E  
Não sei por que minhas pernas tremem e eu perco o ar  
                    F#  
Quando pego o elevador  
      B        F#/A#              E  
Você mora no décimo primeiro andar  
                F#  
No fim do corredor  
  
                B                     F#/A#     
E eu finjo que tanto faz, por mim tá tudo bem  
          E                            F#  
Será que viro o boné pra trás ou fico sem?  
           B                 F#/A#  
As flores são legais, o meu cartão também  
            E                       F#    
Mas quando toco a campainha e você vem...  
             
             E                                  F#  
Eu vejo que eu, que sempre me achei um cara esperto,  
                      B    F#/A#  
Quando vejo você por perto  
G#m                    F#  
Perco a fala e sinto calafrios  
E                     F#           B            F#/A#   G#m  F#  
E não paro de questionar sobre as voltas que a vida dá  
        E        F#        F#/A#          B  
E como tudo mudou,  e sempre vai mudar...  

e|-------------------------------------  
B|---------------2--------2------------  
G|---4-----4-------4---4---------------  
D|-----4-----4-------4-----------------  
A|-2-----2-----2-----------------------  
E|-------------------------------------  
   
e|-----------------------------------------------------------------|  
B|-----------------------------------------------------------------|  
G|-4-4-4-4-4-6-6-6-6-6-9-8-6-6-9-9-8-6-6-8-4-6-8-9-8-6-8-6-6-6-4-6-|  
D|-4-4-4-4-4-6-6-6-6-6-9-8-6-6-9-9-8-6-6-8-4-6-8-9-8-6-8-6-6-6-4-6-|  
A|-2-2-2-2-2-4-4-4-4-4-7-6-4-4-7-7-6-4-4-6-2-4-6-7-6-4-6-4-4-4-2-4-|  
E|-----------------------------------------------------------------|
e|----------------------------------------------------------------  
B|----------------------------------------------------------------  
G|-4-4-4-4-4-6-6-6-6-6-9-8-6-6-9-9-8-6-6-8-4-6-8-9-8-6-8-6-6-6-4-6  
D|-4-4-4-4-4-6-6-6-6-6-9-8-6-6-9-9-8-6-6-8-4-6-8-9-8-6-8-6-6-6-4-6  
A|-2-2-2-2-2-4-4-4-4-4-7-6-4-4-7-7-6-4-4-6-2-4-6-7-6-4-6-4-4-4-2-4  
E|----------------------------------------------------------------
_______________________________________________________

Compartilhe esta música: novo

QR Code
Copiar