Tom: D
Forever the Sickest Kids 
Summer Song 
From 'Forever the Sickest Kids' - 2011 
Chords by blackoctober119 

Riff played over Intro: 
e|--10~----------------------10~------------------| 
B|------10~--8--8-10-8-7---------10~--8--8-10-7~--| 
G|-----------------------7------------------------| 
D|------------------------------------------------| 
A|------------------------------------------------| 
E|------------------------------------------------| 

e|--10~---------------------------------------| 
B|------10~--8--8-10-8-7----8-8--10-10--------| 
G|-----------------------7--------------7-7~--| 
D|--------------------------------------------| 
A|--------------------------------------------| 
E|--------------------------------------------| 
Intro: D-A-G D-A-G-Bm-A D-A-G Bm-A-G Verse: D I can tell you I'm ready but I'm not A I can say that I care but it's not enough Bm A G This summer's a one to remember and I won't forget. D A Followed you to the west coast, G A Take my hand and I won't let go Bm A G A This summer's a one to remember, so what are you waiting for? Chorus: D This is the night, A We came alive G Into the summertime state of mind, A Fight for the finish line Bm A We'll be running til the sun comes up, G Goodbye to giving up
Riff played over post-Chorus: 
e|--10~----------------------10~------------------| 
B|------10~--8--8-10-8-7---------10~--8--8-10-7~--| 
G|-----------------------7------------------------| 
D|------------------------------------------------| 
A|------------------------------------------------| 
E|------------------------------------------------| 
Post-Chorus: D A G (Hey, Hey) D A G Bm A This is our summer song Verse: D D A D City lights up the 101, one on one tonight D A D Your body language speaks to me, yeah, I'm hearing everything I need D A Calm down to a moonlit midnight, G A Kiss your lips, girl, we'll go all night Bm A This summer's a one to remember G A So what are you waiting for? Chorus: D This is the night, A We came alive G Into the summertime state of mind, A Fight for the finish line Bm A We'll be running til the sun comes up, G Goodbye to giving up D This is our night, A This is our time, G This is our last chance, G A All out fight for the finish line Bm A We'll be running til the sun comes up, G Goodbye to giving up Bridge: D G A I don't want this to fade away, G As easy as it came D G A I don't want this track to ever change, G A Cause this is our summer song Chorus: D This is the night, A We came alive G Into the summertime state of mind, A Fight for the finish line Bm A We'll be running til the sun comes up, G Goodbye to giving up D This is our night, A This is our time, G This is our last chance, G A All out fight for the finish line Bm A We'll be running til the sun comes up, G We'll be running
Riff played over post-Chorus: 
e|--10~----------10~-------/17~--15-14--| 
B|-------10~----------10~---------------| 
G|--------------------------------------| 
D|--------------------------------------| 
A|--------------------------------------| 
E|--------------------------------------| 

e|--10~-------10~--12~--14-14-14-14-15-14-10~--| 
B|-------10~-----------------------------------| 
G|---------------------------------------------| 
D|---------------------------------------------| 
A|---------------------------------------------| 
E|---------------------------------------------| 
Post-Chorus: D A G (Hey, Hey) D A G Bm A This is our summer song D A G (Hey, Hey) Bm A G This is our summer song G-A-D

Compartilhe esta música: novo

QR Code
Copiar