The So Called Love Song

Florent Dorin

Tom: C
Capotraste na 7ª casa
 
eme case 

Intro: 
   C       Am      F     C      C       Am      F     G 
|--0--0-0--0----0--1--1--0------0--0-0--0----0--1--1--3-----| 
|--1--1-1--1----1--1--1--1------1--1-1--1----1--1--1--0-1-0-| 
|--0--0-0--2----2--2--2--0------0--0-0--2----2--2--2--0-----| X 2 
|--2--2-2--2----2--3--3--2------2--2-2--2----2--3--3--0-----| 
|--3--3-3--0----0--3--3--3------3--3-3--0----0--3--3--2-----| 
|--x--x-x--0----0--1--1--x------x--x-x--0----0--1--1--3-----| 

   F     G 
|--1--1--3-----| 
|--1--1--0-1-0-| 
|--2--2--0-----| <-- Final Intro 
|--3--3--0-----| 
|--3--3--2-----| 
|--1--1--3-----| 
VERSE C Am Once I was tired F C I wrote a so called love song C Am Wrote only few words F G And please don t get me wrong C Am I know you deserve better F C Some kind of poetry C Am Written with golden letters F G Shinning over humanity C Am But I ain’t no genius F C To write a love song C Am And even if I’m tired F |(stop)| C I say to you-ouuuuuuuuuu I do belong Chorus: C Am F C If you listen to the sound of my voice C Am F G Won’t you be the one with a choooooice C Am F C I am already dumb because of my love song C Am F |(stop)| C Will I be the one that staaaaaaaaaay on my own? VERSE : Will you be happy When your heart dress in black All around me I fell the lack of distract But when I look through your eyes I see what s magic on earth And if you think its are lies Bab’ I’ll give you a curse The one to love me Until the rest of your life This song was written for me And you if you d like FINAL Chorus: C Am F C If you listen to the beat of my heart C Am F C Won’t you be the one that could be smart C Am F C I’m already dumb because of my love song C Am F C Will I be the one that staaaaaaaay on my - Am F C If you listen to the words of my love song C Am F G Won’t you understand what is going wrong C Am F C Love’s nothing about receiving but to give C Am F |(stop)| C So please receive my song and let myyyyyyyyyy love to live! F C love to live! (x3)

Compartilhe esta música: novo

QR Code
Copiar