Cidades Na Selva

Filhos da Corte

Tom: G
Intro: G  Em  D  C  (2x)   
  

 
E|5-5-5-5-5-5-5-5-5-2-2-2-2-2-2-2-2-2-4-4-4-4-4-4-4-4-4--------------------| 
B|-------------------------------------------------------3-3-3-3-3-3-3-3-3-| 
G|-------------------------------------------------------------------------| 
D|-------------------------------------------------------------------------| 
 

 
E|5--5-5-2--2-2-4--4-4--4-6-------------------------------| 
B|--------------------------------------------------------| 
G|--------------------------------------------------------| 
D|--------------------------------------------------------| 
 

Parte 1: 

 
E|5-5-5-5-5-5-5-5-5-2-2-2-2-2-2-2-2-2-4-4-4-4-4-4-4-4-4--------------------| 
B|-------------------------------------------------------3-3-3-3-3-3-3-3-3-| 
G|-------------------------------------------------------------------------| 
D|-------------------------------------------------------------------------| 
(↓↑↓↑↓↓↑) G Já era, uma vez Em O materialismo do seu chefe D Valer mais do que vocês C A estória não é errada G Cada vez mais escondido Em Em seu castelo de cartas marcadas
E|5--5-5-2--2-2-4--4-4--4-6-------------------------------| 
B|--------------------------------------------------------| 
G|--------------------------------------------------------| 
D|--------------------------------------------------------| 
( D C ) (↓↓↑↑↓) 2x Parte 2: (↓↓↓↑)
 
E|5-5-5----------------------------------------------------| 
B|------3-3-3-3-3-3----------------------------------------| 
G|---------------------------------------------------------| 
D|---------------------------------------------------------| 
G C Vivemos numa cidade capital G Onde não existe o social C G Somos como animais selvagens C Vivendo numa lei G C Onde os fracos não tem vez
E|---------------------4----------2-2----------------------| 
B|5-5-5-5-0-2-2-2-2-0-5-0-2-2-2-2----5-5-------------------| 
G|---------------------------------------------------------| 
D|---------------------------------------------------------| 
(↓↓↓↓↓) G Num país sem democacia C Arriscando nossas vidas G A carne é viva C Em qualquer esquina
 
E|5--5-5-2--2-2-4--4-4--4-6-------------------------------| 
B|--------------------------------------------------------| 
G|--------------------------------------------------------| 
D|--------------------------------------------------------| 
 

( G (↓↓)  Em (↓↓)  D (↓↓↑↑↓) )  4x 

 
E|5-5-5-5-5-5-5-5-5-2-2-2-2-2-2-2-2-2-4-4-4-4-4-4-4-4-4--------------------| 
B|-------------------------------------------------------3-3-3-3-3-3-3-3-3-| 
G|-------------------------------------------------------------------------| 
D|-------------------------------------------------------------------------| 
(↓↑↓↑↓↓↑) G Em D C Selva ou não, depende de vocês: Que pagam impostos a quem não é rei! G Em D C Selva ou não, depende de vocês: A quem doa a vida aos carrascos de vocês! (2x)

Compartilhe esta música: novo

QR Code
Copiar