1971 Muros, Armas E Amores

Filhos da Corte

Tom: B
 
 Intro (Segue com partes 1, 2 e 3) B11+  Bm7M  C#m7M  Bm7M  B11+ 
E|----------------------------------|-------------------------------| 
B|----------------------------------|-------------------------------| 
G|----------------------------------|-------------------------------| 
D|----------------------------------|-------------------------------| 
A|------------5---5-5-5-5-----------|-----------5---5h7-------------| 
E|5---5-5-5-5------------7---7-7-6-7|5---5-5-5-5-------7-7-6h7------| (2x) 



(Parte 1) 
 
E|------------------------------------------------------------------| 
B|------------------------------------------------------------------| 
G|------------------------------------------------------------------| 
D|------------------------------------------------------------------| 
A|5-5-5-5-5-5-5-5-5-5-----------------------------------------------| 
E|-------------------5-5-5-5-5-5-5-5-5-5-7-7-7-7-7-7-7-7-7-7-5------| (2x) 
B11+ Bm7M C#m7M O velho da bancada do jornal Bm7M B11+ Tenta não perder a moral B11+ Bm7M C#m7M Entre esses muros Bm7M B11+ Longe de armas B11+ Bm7M C#m7M Afastando seu amor Bm7M B11+ 1971, orquestra escravidão... Muros e solidão. B11+ Bm7M C#m7M Bm7M B11+ (Parte 2)
 
E|------------------------------------------------------------------| 
B|------------------------------------------------------------------| 
G|------------------------------------------------------------------| 
D|------------------------------------------------------------------| 
A|------------------------------------------------------------------| 
E|5-5-5-5h6-6h7-7-7-7-----------------------------------------------| (3x) 
B11+ Bm7M C#m7M O menino do sinal Bm7M B11+ Sobrevive mais um dia nessa vida animal B11+ Bm7M C#m7M Sem muros Bm7M B11+ Com sua arma B11+ Bm7M C#m7M Clamando por amor Bm7M B11+ 1971, orquestra escravidão... Armas e solidão. B11+ Bm7M C#m7M Bm7M B11+ (Parte 3)
 
E|------------------------------------------------------------------| 
B|------------------------------------------------------------------| 
G|------------------------------------------------------------------| 
D|------------------------------------------------------------------| 
A|------------------------------------------------------------------| 
E|3-3-3-3h4-4h5-5-5-5-----------------------------------------------| (3x) 
B11+ Bm7M C#m7M A moça na viela escura Bm7M B11+ Deflagra-se mais uma vez semi nua B11+ Bm7M C#m7M Atrás dos muros Bm7M B11+ Fugindo de armas B11+ Bm7M C#m7M Banalizando seu amor Bm7M B11+ 1971, orquestra escravidão... Amor e solidão. Riff-Intro B11+ Bm7M C#m7M Bm7M B11+ 1971... (x4)

Compartilhe esta música: novo

QR Code
Copiar