Nada Além do SangueCifra Verificada

Fernandinho

Tom: A
Capotraste na 1ª casa
		  
  
(Intro 2x) A  D9/F#  

(intro solo - violão 2)  
   A               D9/F#  
E|------------------------------------------  
B|-----------3-3---3h4-4-3-3----------------  
G|-----3-5-5-----3-----------5-5-3----------  
D|---3-------------1------------------------  
A|-1----------------------------------------  
E|------------------------------------------  

   A               D9/F#  
E|------------------------------------------  
B|-----------3-3---3h4-4-3-3----------------  
G|-----3-5-5-----3-----------5-5-3----------  
D|---3-------------1---------------3--------  
A|-1----------------------------------------  
E|------------------------------------------ 
A F#m7(11) A F#m7(11) Teu sangue leva-me além a todas as alturas onde ouço a tua voz E D9 A ( D9/F# E ) Fala de tua justiça pela minha vida Jesus,este é o teu sangue A F#m7(11) A F#m7(11) Tua cruz mostra tua graça fala do amor do Pai que prepara para nós E D9 A ( D9/F# E ) Um caminho para Ele onde posso me achegar somente pelo sangue A F#m7(11) Que nos lava dos pecados, que nos traz restauração E D9 A ( D9/F# E ) Nada além do sangue, nada além do sangue de Jesus A F#m7(11) O que nos faz brancos como a neve, aceitos como amigos de DEUS E D9 A ( D9/F# E ) Nada além do sangue, nada além do sangue de Jesus A Eu sou livre... F#m7(11) Eu sou livre... E D9 A ( D9/F# E ) Nada além do sangue, nada além do sangue de Jesus (repete tudo)

Compartilhe esta música: novo

QR Code
Copiar