Faz choverCifra Verificada

Fernandinho

Tom: Bm
		 

(intro) Bm G D A9 Bm G D A9 G9 

D                     A9      Bm 
Assim como a corça anseia por águas 
G          D/F#    Em        A9 
Como terra seca precisa da chuva 
     G  A9       D/F#    G      D          A9 
Meu coração tem sede de ti Rei meu e Deus meu   (2x) 

       Bm  G   D      A9 
Faz chover  Senhor Jesus 
          Bm  G        A9 
Derrama chuva  neste lugar 
             Bm G   D      A9 
Vem com teu rio  Senhor Jesus 
     Bm     G      A9 
Inundar o meu coração  (2x) 

(solo)  Bm7 G5 D9 A4 Bm7 G5 D9 A4 G5 A4 B5 E4 E 
 
e|-----------------------------------------5--------| 
B|-12-14-14b(1/2)~----------------------------------| 
G|----------------11-12~-11h12/14-12-11-9~---7------| 
D|--------------------------------------------------| 
A|--------------------------------------------------| 
E|--------------------------------------------------| 

e|--10-9-7----------------------------| 
B|---------10-8-7-------10~-10/12-10~-| 
G|-7--7-7-7--7----9-9/11--------------| 
D|------------------------------------| 
A|------------------------------------| 
E|------------------------------------| 

e|-t----------t----------t----------t----------t-----------| 
B|-12-10p8h10-14-10p8h10-15-10p8h10-14-10p8h10-14-12p10h12-| 
G|---------------------------------------------------------| 
D|---------------------------------------------------------| 
A|---------------------------------------------------------| 
E|---------------------------------------------------------| 

e|-t-----------t-----------t-----------t------------------| 
B|-15-12p10h12-17-12p10h12-15-12p10h12-17~-17b-17r-17b~~~-| 
G|--------------------------------------------------------| 
D|--------------------------------------------------------| 
A|--------------------------------------------------------| 
E|--------------------------------------------------------|
C#m7 A9 E9 B5 Faz chover Senhor Jesus C#m7 A9 B5 Derrama chuva neste lugar C#m7 A9 E9 B5 Vem com teu rio Senhor Jesus C#m7 A9 B5 Inundar o meu coração

Compartilhe esta música: novo

QR Code
Copiar