Ainda Que A FigueiraCifra Verificada

Fernandinho

Tom: F#m
    

Intro: F#m  E4/A  E  (2x)     

F#m              E/G#        
   Tu És a minha porção       
Bm             D9       
   Tu es minha  herança      
F#m          E/G#          Bm             D9       
   Tu És o meu socorro nos dias de tribulação       

A                  E       
 Mesmo que os meus pais me deixem       
Bm           D       
 Mesmo que amigos me traiam       
A        E                      Bm           D9       
 Eu sei que em seus braços eu encontro salvação       


A E Ainda que a figueira não floresça Bm D Ainda que a videira não dê o seu fruto A E Mesmo que não haja alimento nos campos G D Eu me alegrarei em Ti (2x)
Instrumental: F#m E4/A E
solo parte 1   

 e|-------------------------------------------------------------|   
 B|-------------------------------------------------------------|   
 G|------2-2-----2-----2--2h4--2------2--2-2-2---1--1-----------|   
 D|--2h4-----2h4---2h4------------2h4---------------------------|   
 A|-------------------------------------------------------------|   
 E|-------------------------------------------------------------|   




 e|-------------------------------------------------------------|   
 B|-------------------------------------------------------------|   
 G|------2-2-----2-----2--2h4--2------2--2-2-2---1--1-----------|   
 D|--2h4-----2h4---2h4------------2h4---------------------------|   
 A|-------------------------------------------------------------|   
 E|-------------------------------------------------------------|   

    

  solo parte 2   



 e|-------------------------------------------------------------|   
 B|---10--12--14/12--10--9-----------10-12/17-17-10-9-------|   
 G|11-------------------------9-9	-11-------------------9-9h11|   
 D|-------------------------------------------------------------|   
 A|-------------------------------------------------------------|   
 E|-------------------------------------------------------------|   






 e|---------------9---9---9---9-----12--12--12--12----12--------|   
 B|--10----10-----10--10--10--10----10--10--10--10----10--------|   
 G|-----11----11------------------------------------------------|   
 D|-------------------------------------------------------------|   
 A|-------------------------------------------------------------|   
 E|-------------------------------------------------------------|   


Compartilhe esta música: novo

QR Code
Copiar