Espírito SantoCifra Verificada

Fernanda Brum

Tom: G
 Introdução: 

 
 e|---------------0-----------0-2-------------2-3-3-2-----------| 
 B|-0-------0-1-3-----------1-------0-0-----0-------3-3/5--5----| 
 G|-----0-----------0-0---0-------2-------2---------2------6----| 
 D|---0---0-----------------------------------------0-----------| 
 A|-----------0-2-3-----3-------2-------2------------------0----| 
 E|-3-------3-----------------------------------0---------------| 



 e|-12(HA)------------------------------------------------------| 
 B|----------0-1-0-1-0-----------3---------0-1-0-1-3------------| 
 G|--------2-----------0-2-2---2-------2-2-------------0-0---0--| 
 D|--------------------------0-------0---------------0-----2----| 
 A|------------0-----------------------------0-----2-----3-----3| 
 E|------------------3-----2-------2----------------------------| 



 e|--------------3--2--0----------------------------------------| 
 B|--------------0--3--1--3-------------------------------------| 
 G|--2/4\2--0--0----------0-----0-------------------------------| 
 D|---------------------------0---0-----------------------------| 
 A|-------------------------------------------------------------| 
 E|------------3----------3----------3--------------------------| 
G G/B C9 G/B Espírito Santo, ore por mim Am7 D7 G4 G C/D Leve pra Deus tudo aquilo que eu preciso G G/B C9 G/B Espírito Santo, use as palavras Am7 D7 G4 G Am7 G/B Que eu necessito usar, mas não consigo C7+ D/C Me ajude nas minhas fraquezas Bm7 Em7/9 Não sei como devo pedir Am7 C/D Dm7 Espírito Santo, vem interceder por mim F/G G C7+ B7 Todas as coisa cooperam pra o bem Em D A/C# Daqueles que amam a ti Am7 C/D G Espírito Santo, vem orar por mim
Em9 C7+ Estou clamando, estou pedindo G/B Am7 C/D G9 Só Deus sabe a dor que estou sentindo (2x) Em9 C7+ Meu coração está ferido G/B Am7 C/D G Mas o meu clamor está subindo
SOLO
 
 e|------------7--8--10--12---------------12--14----------------| 
 B|--0----------------------------------0-----------12--12------| 
 G|--0----0-----------------12-12----12----------11-------------| 
 D|--0--0---0--5--7--9---10-------10----------------------------| 
 A|-------------------------------------------14----------------| 
 E|--3----------------------------------------------------------| 



 e|----------14--15---15-14--10/12--12------12--------5-7-8-7-8-| 
 B|-------12-----0-----------------------10--------10-----------| 
 G|----11--------0--0----11------------9---------9--------------| 
 D|----------------------0--------------------------------------| 
 A|-14------------------------------0----------0----------0-----| 
 E|--------------0----------------------------------------------| 



 e|-7--3-5-5-----5-------5-7-8-7-8--10------------5/7--5--3p0---| 
 B|------------3-------3---------------8-8---8------------------| 
 G|----------2-------2---------------------9---9--5/7--5--4-----| 
 D|--------4-------4--------------------------------------------| 
 A|--------------------------0------7---------------------------| 
 E|-3------------------------------------8----------------------| 



 e|-3--3--2---0----------------------0--------------------------| 
 B|-3-----3-------3----3----1---3----0--------------------------| 
 G|-0-----0-0---0----0---0----0---0--0--------------------------| 
 D|-------------------------------------------------------------| 
 A|-------------------------0---2----3--------------------------| 
 E|-3-----3---------3-------------------------------------------| 
Am7 G/B C7+ B7 Todas as coisa cooperam pra o bem Em D A/C# Daqueles que amam a ti Am7 C/D G Espírito Santo, vem orar por mim
Em7/9 C7+ Estou clamando, estou pedindo G/B Am7 C/D G9 Só Deus sabe a dor que estou sentindo (2x) Em7/9 C7+ Meu coração está ferido G/B Am7 C/D G Mas o meu clamor está subindo
G Am7 G/B C7+ G/B Am7 D/F# G

Compartilhe esta música: novo

QR Code
Copiar