Thievery

Far From Alaska

Tom: E
Intro e verso: 

 
E|-------------------| 
B|-------------------| 
G|-------------------| 
D|-------------------| 
A|------7-5-7------2-| 
E|-0-00-------33-5---| 
 

 
E|---------------------| 
B|---------------------| 
G|---------------------| 
D|---------------------| 
A|------7-5-7------2-5-| 
E|-0-00-------33-5-----| 
 

 
E|-------------------| 
B|-------------------| 
G|-------------------| 
D|-------------------| 
A|------7-5-7------2-| 
E|-0-00-------33-5---| 
 

 
E|--------------------------| 
B|--------------------------| 
G|--------------------------| 
D|--------------------------| 
A|------7-5-7-----2-5-2-----| 
E|-0-00-------3-5-------5-3-| 
Pré-Refrão: E5 Now it's yours E5 Now it's yours E5 E5 G5 Now it's yours Refrão: Man, if I were you I would run 'Cause my love is tough, you should hide and disappear
 
E|--------------------------------------| 
B|--------------------------------------| 
G|--------------------------------------| 
D|--------------------------------------| 
A|-2--7p5-7--2--7p5-7--2--7p5-7--2------| 
E|-0--0------0--0------0--0------0--3v--| 
 
Verso 2: E5 E5 E5 E5 I've lost a little love on a central station E5 E5 E5 E5 I've lost a little love on a central station E5 E5 E5 E5 I've lost a little love on a central station Intro:
E|-------------------| 
B|-------------------| 
G|-------------------| 
D|-------------------| 
A|------7-5-7------2-| 
E|-0-00-------33-5---| 
 

 
E|---------------------| 
B|---------------------| 
G|---------------------| 
D|---------------------| 
A|------7-5-7------2-5-| 
E|-0-00-------33-5-----| 
 

 
E|-------------------| 
B|-------------------| 
G|-------------------| 
D|-------------------| 
A|------7-5-7------2-| 
E|-0-00-------33-5---| 
 

 
E|--------------------------| 
B|--------------------------| 
G|--------------------------| 
D|--------------------------| 
A|------7-5-7-----2-5-2-----| 
E|-0-00-------3-5-------5-3-| 
 
Pré-Refrão: E5 Now it's yours E5 Now it's yours E5 E5 G5 Now it's yours Refrão: Man, if I were you I would run 'Cause my love is tough, you should hide and disappear
 
E|-------------------------------------| 
B|-------------------------------------| 
G|-------------------------------------| 
D|-------------------------------------| 
A|-2--7p5-7--2--7p5-7--2--7p5-7--2-----| 
E|-0--0------0--0------0--0------0--3v-|

Compartilhe esta música: novo

QR Code
Copiar