Tom: Em
Riff Principal 

 
E|-----------------------------| 
B|-----------------------------| 
G|-----------------------------| 
D|-----5-----------------------| 
A|--7----7--5-7--------5------7| 
E|------------------7----7--5--| 
Intro Riff Principal 1x (Riff Principal) ou (Em Bm Em) Várias vezes Mama told me not to talk to strangers when I'm out of home 'Cause we live in a universe where no one can really know a soul Papa told me not to talk to strangers when I'm out of home 'Cause we live in a universe where everything is just hurt and dust Riff Ponte (4x)
 
E|--------------------------------| 
B|-----8--------------------------| 
G|--/9----9--7--------------------| 
D|-------------5~~----------------| 
A|-----------------------5-----5--| 
E|-------------------5-7---5-7---0| 
(Riff Principal) ou (Em Bm Em) Várias vezes Mama told me not to talk to strangers when I'm out of home 'Cause we live in a universe where no one can really know a soul Papa told me not to talk to strangers when I'm out of home 'Cause we live in a universe where everything is just hurt and dust Riff Ponte (4x) Riff do Refrão
 
   E5  G5   A5   B5         E5 
E|---------------------------| 
B|---------------------------| 
G|---------------------------| 
D|---------2-2--4------------| 
A|-2---5---0-0--2---0h2--0-2-| 
E|-0---3-------------------0-| 
E5 G5 A5 B5 E5 No, I can't regret what I did G5 A5 B5 'Cause my life won't stop E5 G5 And Hey(hey), you(you) A5 B5 Don't forget to grow up E5 G5 Hey(hey), you(you) A5 B5 What's your name? Riff Principal ou (Em Bm Em) Mama told me not to talk to strangers when I'm out of home 'Cause we live in a universe where no one can really know a soul Papa told me not to talk to strangers when I'm out of home 'Cause we live in a universe where everything is just hurt and dust Riff Ponte 4x (Apenas o baixo em Em) No, I can't regret what I did 'cause I'm not eighteen anymore Hey you, what's happening down in your block? Hey you, I can't hear what you're saying (2x) No, I can't regret.. Riff do Refrão E5 G5 A5 B5 E5 No, I can't regret what I did G5 A5 B5 'Cause my life won't stop E5 G5 And Hey(hey), you(you) A5 B5 Don't forget to grow up E5 G5 Hey(hey), you(you) A5 B5 What's your name? (2x)

Compartilhe esta música: novo

QR Code
Copiar