Dino Vs. Dino

Far From Alaska

Tom: E
Intro: E5  G5 

Riff: 
 
                   E5 G5 
E|--------------------- 
B|--------------------- 
G|--------------------- 
D|--------------------- 
A|---5-7-5-7-5-7---2--5 
E|---0-------------0--3 
E5 G5 E5 G5 E5 'You're so nice', he said to them a while ago G5 E5 riff Back in the time when they were good to go E5 G5 E5 G5 E5 'Weird nights' rephrasing what he said before G5 E5 riff Twisting words, summoning everyone E5 G5 E5 G5 You knew I couldn't hold my words E5 G5 E5 riff Even though I wanted to E5 G5 E5 G5 And I knew what I supposed to do E5 G5 E5 riff But chose to blame it all on you Refrão:
 
E|--------------------------------------------------| 
B|--------------------------------------------------| 
G|--------------------------------------------------| 
D|--------------------------------------------------| 
A|------2-2--5-7-5-7--2-2-------2-2--5-7-5-7-5-7--2-| 
E|--3b--0-0--0--------0-0-0-3b--0-0--0------------0-| 
(Repete tudo) ( Em E5 D5 A5 C5 B5 G5 F5 )

Compartilhe esta música: novo

QR Code
Copiar