Xote Dos MilagresCifra Verificada

Falamansa

Tom: G
Intro: G D Am C 

e|---------------------------------------------------------------| 
B|--0--3--5--3----0--3--5--3----1-1-1-1-1-1----3--5--3--0-----0--| 
G|--0--4--5--4----0--4--5--4----2-2-2-2-2-2----4--5--4--0--0--0--| 
D|---------------------------------------------------------0-----| 
A|---------------------------------------------------------------| 
E|---------------------------------------------------------------| 

e|---------------------------------------------------------------| 
B|----0--0-3-5-3-----0--0-3-5-3------1-1-1-1-1-1--3--5-3-0-------| 
G|----0--0-4-4-4-----0--0-4-5-4------2-2-2-2-2-2--4--5-4-0-0-----| 
D|-----------------0---------------------------------------0-----| 
A|--------------------------------0------------------3-----------| 
E|--3------------------------------------------------------------| 

e|-------------------------------------------------------------3-| 
B|----0--0-3-5-3-----0--0-3-5-3------1-1-1-1-1-1--3--5-3-0-----3-| 
G|----0--0-4-4-4-----0--0-4-5-4------2-2-2-2-2-2--4--5-4-0-0---0-| 
D|-----------------0---------------------------------------0---0-| 
A|--------------------------------0------------------3---------2-| 
E|--3----------------------------------------------------------3-| 

G D Am7 C D Escrevi seu nome na areia G D Am7 C D O sangue que corre em mim sai da tua veia G D Am7 C D Veja só você é a única que não me dá valor G D Am7 C D Então por que será que este valor é o que eu ainda quero ter G D Am7 Tenho tudo nas mãos, mas não tenho nada. C D G Então melhor ter nada e lutar pelo que eu quiser G D Ê, mas péra aê. Am7 C D Ouça o forró tocando e muita gente aê G D Am7 Não é hora pra chorar Bm7 Am7 Porém não é pecado se eu falar de amor Bm7 Am7 Se eu canto sentimento seja ele qual for Bm7 Me leva onde eu quero ir Am7 Se quiser também pode vir Bm7 Escuta o meu coração Am7 C/D G Que bate no compasso da zabumba de paixão
G D Am7 C D G Ê pra surdo ouvir, pra cego ver que este xote faz milagre acontecer. G D Am7 C D G Ê pra surdo ouvir, pra cego ver que este xote faz milagre acontecer. G D Am7 C D G Ê pra surdo ouvir, pra cego ver que este xote faz milagre acontecer. G D Am7 C D G Ê pra surdo ouvir, pra cego ver Falamansa faz milagre acontecer.

Compartilhe esta música: novo

QR Code
Copiar