Tom: D
Capotraste na 1ª casa
 


Intro: D G Bm A 


        D 
If you can't take it anymore 

         G 
I will gladly fill your place 

         Bm 
In the backrooms, in the bathrooms 

       A 
I am still so out of place 


       D 
I am shakin' in my shoes 

        G 
And my hands are paralyzed 

          Bm 
I try to say something clever 

          A 
But they all just roll their eyes 


D                    Bm 
Just tap your feet along with your heartbeat 

      A                  G 
And don't say a word to anyone, anyone 

D                    Bm 
The television is waiting to save you 

        A                 G 
It'd be nice to have a conversation 


Bm                 A 
Just tap tap your feet to your heartbeat 


Chorus: same as intro x2, then 2 measures of D. 

Repeat chord progression until: 


Bm               A    
If confidence is key, 

D           A                 G 
I must be locked out of the house 

Bm                   A      D 
If home is where the heart is, 

A         G 
I do not have, no I do not have a pulse 


Break:  
D   A   G  
Bm  G   A 
D   A   G 
Bm  G   A 

Lead guitar part: 

e|-----16-15------------------|----------------------------| 
B|-----------16---------------|--13-15-13------------------| 
G|--------------15------------|-----------15-12------------| 
D|----------------------------|----------------------------| 
A|----------------------------|----------------------------| 
E|----------------------------|----------------------------| 


e|----------------------------|----------------------------|| 
B|-----13-11------------------|----------------------------|| 
G|-----------13-12-13-12------|--------12------------------|| 
D|-----------------------15---|--13-15----15-13------------|| 
A|----------------------------|----------------------------|| 
E|----------------------------|----------------------------|| 

D Bm Just tap your feet along with your heartbeat A G And don't say a word to anyone, anyone D Bm The television is waiting to save you A G It'd be nice to have a conversation Bm A Just tap tap your feet Bm A Tap tap your feet to your heartbeat Repeat chorus until the end, finish on D

Compartilhe esta música: novo

QR Code
Copiar