CanteirosCifra Verificada

Fagner

Tom: D
Intro:  

e|-2---2---3---2---0---2---3-2----7--7---8---7---10---10---10---7--|  
B|-----------------------------3--8-----------------------------8/-|  
G|-------2---2---2---2---2--------7----7---7---7-----7----7--------|  
D|-0---------------0--------------0--------------0-----------------|  
A|-----------------------------------------------------------------|  
E|-----------------------------------------------------------------|  

e|-2---2---3---2---0---2---3p2----7-7---8---7---0p7----8p7---2-|  
B|-3--------------------------3/--8-----------8----8------8/-3-|  
G|-2-----2---2---2---2---2--------7---7---7----------7-------2-|  
D|-0---------------0--------------0-------------0------0-----0-|  
A|-------------------------------------------------------------|  
E|-------------------------------------------------------------|  

D A Bm7/A C#m7/A A Quando penso em você Bm7 A6 G fecho os olhos de saudade D A Bm7/A C#m7/A A Tenho tido muita coisa, G D/F# Bm7/9 menos a felicidade
Solo:  
e|-10P9--------------------------|  
B|------10-----------------------|  
G|---------9---7P6---------------|  
D|-----------------7---------0---|  
A|-------------------7--5/4------|  
E|-------------------------------|  
D A Bm7/A C#m7/A A Correm os meus dedos longos Bm7 A6 G em versos tristes que invento D A Bm7/A C#m7/A A Nem aquilo a que me entrego G D/F# Bm7/9 já me dá contentamento Am D7(4) Gm7 C7 F Pode ser até manhã, cedo claro feito dia Bb7+ Gm7 A7 Dm7 Mas nada do que me dizem me faz sentir alegria Dm7 Dm7/C Gm7 C7/4 C7 F Eu só queria ter no mato um gosto de framboesa Bb7+ Gm7 A7 Dm7 Prá correr entre os canteiros e esconder minha tristeza Dm Dm/C Que eu ainda sou tao moço prá tanta tristeza G/B G/Bb E deixemos de coisa, cuidemos da vida, Dm Dm/C G/B Pois se não chega a morte ou coisa parecida G/Bb Dm E nos arrasta a todos sem ter visto a vida

Compartilhe esta música: novo

QR Code
Copiar