The Best Years Of Our Lives

Evan Taubenfeld

Tom: D
I
ntroriff 
   D   G   B 
E|---|---|---| 
B|---|---|---| 
G|---|---|---| 
D|-0-|-5-|-9-| 
A|-0-|-5-|-9-| 
E|-0-|-5-|-9-| 
        D              G              B               G        
E|--------------|--------------|--------------|---------------| 
B|--------------|--------------|--------------|---------------| 
G|--------------|--------------|--------------|---------------| 
D|---0----0----0|---0----0----0|---0----0----0|---0----0----0-| 
A|--5-5--5-5--5-|--5-5--5-5--5-|--5-5--5-5--5-|--5-5--5-5--5--| 
E|-0----0----0--|-5----5----5--|-9----9----9--|-5----5----5---| 
Oh oh oo Oh Oh oo... (3x) We had the best years of our lives But you and I would never be the same September took me by surprise And I was left to watch the seasons change Oh oh oo Oh Oh oo... (3x) It's been so quiet since you're gone And everyday feels more like a year Sometimes I wish I could move on The memories would all just disappear
  A  Bm   G 
E|---|---|---| 
B|---|---|---| 
G|-6-|-7-|-4-| 
D|-7-|-0-|-5-| 
A|-7-|-x-|-5-| 
E|---|-9-|-5-| 
A Bm G So many things I should've A Said when I had the chance Bm G So many times we took it all for granted
  D5  G   Bm 
E|---|---|---| 
B|-3-|---|---| 
G|-2-|-4-|-7-| 
A|-0-|-5-|-0-| 
E|---|-5-|-x-| 
B|---|-5-|-9-| 
D5 G I'd never thought this could ever end Bm I'd never thought I'd lose my bestfriend Everything is different now G Can we stop the world from turning? D5 G I've never thought I'd have to let you go Bm I've never thought I'd ever feel this low I wish I could go back G And we'd stop the world from turning Oh oh oo Oh Oh oo Looking back on better days When we were young, we thought we knew so much And now it seems so far away I'm wondering if I was good enough A Bm G So many things I should've A Said when I had the chance Bm G So many times we took it all for granted D5 G I'd never thought this could ever end Bm I'd never thought I'd lose my bestfriend Everything is different now G Can we stop the world from turning? D5 G I've never thought I'd have to let you go Bm I've never thought I'd ever feel this low I wish I could go back G And we'd stop the world from turning
   D   E   G   A 
E|---|---|---|---| 
B|---|---|---|---| 
G|---|---|---|-6-| 
D|-0-|-2-|-5-|-7-| 
A|-0-|-2-|-5-|-7-| 
E|-0-|-2-|-5-|---| 
D E Gone are all the days G When we swore we'd never break A And now I'm left here alone D E Gone are all the days G When we swore we'd never change A And now I'm left here alone
E|--------------|--------------|--------------|---------------| 
B|--------------|--------------|--------------|---------------| 
G|--------------|--------------|--------------|---------------| 
D|---0----0----0|---0----0----0|---0----0----0|---0----0----0-| 
A|--5-5--5-5--5-|--5-5--5-5--5-|--5-5--5-5--5-|--5-5--5-5--5--| 
E|-0----0----0--|-5----5----5--|-9----9----9--|-5----5----5---| 
Refrão D5 G I'd never thought this could ever end Bm I'd never thought I'd lose my bestfriend Everything is different now G Can we stop the world from turning? D5 G I've never thought I'd have to let you go Bm I've never thought I'd ever feel this low I wish I could go back G And we'd stop the world from turning
 
E|--------------|--------------|--------------|----------------| 
B|--------------|--------------|--------------|----------------| 
G|--------------|--------------|--------------|----------------| 
D|---0----0----0|---0----0----0|---0----0----0|---0----0----0--| 
A|--5-5--5-5--5-|--5-5--5-5--5-|--5-5--5-5--5-|--5-5--5-5--5---| 
E|-0----0----0--|-5----5----5--|-9----9----9--|-5----5----5---0| 

Riff do piano 
E|---------------------------------| 
B|--10-8-7--10-8-7--10-8-7--10-5-7-| 
G|---------------------------------| 
D|---------------------------------| 
A|---------------------------------| 
E|-0~~~----5~~~----9~~~----5~~~----|

Compartilhe esta música: novo

QR Code
Copiar