Wonderful TonightCifra Verificada

Eric Clapton

Tom: G
Intro:  G   D/F#   C   D   G   D/F#   C   D   

Guitar 1:  
|----------3---------------0---------------0---------------2-------3-|     
|------3-----3---3---2---2---2---2-----3-----3---3-----3-----3---3-3-|     
|----0---0-----0-------3-------3-----0---0-----0-----2---2-----2---0-|     
|--------------------------------------------------0---------------0-|     
|----------------------------------3-------------------------------2-|     
|--3---------------2-----------------------------------------------3-|   

Guitar 2:  

|----------------------------------------------|     
|-10b12r10p8-10~--10b12r10p8----10b12r10p8-10~-|     
|----------------------------9~----------------|     
|----------------------------------------------|     
|----------------------------------------------|     
|----------------------------------------------|     
     
|------------------------------------------------------------|     
|-10b12r10p8-10~--10b12r10p8----10b12r10-8-10-12-13-15b17-17-|     
|----------------------------9~------------------------------|     
|------------------------------------------------------------|     
|------------------------------------------------------------|     
|------------------------------------------------------------|   

Solo & Opening: G D/F# C D
Verse:  

|----------3---------------0---------------0---------------2-------|     
|------3-----3---3---2---2---2---2-----3-----3---3-----3-----3---3-|     
|----0---0-----0-------3-------3-----0---0-----0-----2---2-----2---|     
|--------------------------------------------------0---------------|     
|----------------------------------3-------------------------------|     
|--3---------------2-----------------------------------------------|     
     
|----------3---------------0---------------0---------------2-----|     
|------3-----3---3---2---2---2---2-----3-----3---3-----3-----3---|     
|----0---0-----0-------3-------3-----0---0-----0-----2---2-----2-|     
|--------------------------------------------------0-------------|     
|----------------------------------3-----------------------------|     
|--3---------------2---------------------------------------------|     
     
|--------------0---------------2-------------------------------------|     
|----------1-----1---1-----3-----3---3----3-------3-------3-------3--|     
|--------0---0-----0-----2---2-----2----0---0---2---2---0---0---0--0-|     
|----------------------0---------------------------------------------|     
|--0-2-3------------------------------------------------------2------|     
|--------------------------------------3------2-------0--------------|     
     
|----------0---------------2-------3-|     
|------1-----1---1-----3-----3---3-3-|     
|----0---0-----0-----2---2-----2---0-|     
|------------------0---------------0-|     
|--3-------------------------------2-|     
|----------------------------------3-|  

Verse Riff:  

|-----------10----10h12-10----------|     
|---8-10/12----12----------12/10-8~-|     
|-9---------------------------------|     
|-----------------------------------|     
|-----------------------------------|     
|-----------------------------------|   
 
G D It's late in the evening C D She's wondering what clothes to wear G D She puts on her make up C D And brushes her long blonde hair C D And then she asks me G D Em Do I look alright C D G D C D And I say yes, you look wonderful tonight G D We go a party C D And everyone turns to see G D This beautiful lady C D That's walking around with me C D And then she asks me G Em Do you feel alright C D G And I say yes, I feel wonderful tonight C I feel wonderful D G D Em Because I see the love light in your eyes C D And the wonder of it all C D Is that you just don't realize G D C D How much I love you G D It's time to go home now C D And I've got an aching head G D So I give her the car keys C D She helps me to bed C D And then I tell her G Em As I turn out the light C D G Em I say my darling, you were wonderful tonight C D G D/F# C D G Oh my darling, you were wonderful tonight
Outro:  

|----------------------10------------------10/12-10h12-10-12-10-|     
|--10b12r10-8-10-10b12----12bp10-8------------------------------|     
|----------------------------------9-7h9-7----------------------|     
|---------------------------------------------------------------|     
|---------------------------------------------------------------|     
|---------------------------------------------------------------|     
     
|---------------------------------------------------------------|     
|---------------------------------------------------------------|     
|-10b12r10p8-10~--10b12r10p8----10b12r10p8-10~--12-13-15b17-17~-|     
|----------------------------9~---------------------------------|     
|---------------------------------------------------------------|     
|---------------------------------------------------------------| 

Compartilhe esta música: novo

QR Code
Copiar