Dia De Paz

Erasmo Carlos

Tom: G
G7(13)  G4(7)  G4(7)  Dm11/G  Dm11/G  C  C4  C 

     G7(13)    G4(7)      G4(7)       Dm11/G  Dm11/G    C  C4  C 
E|-------------------------------------------------------1----| 
B|-5—3---3-5-6--3---3-5-6—5-3---3-5-3-5-6-5-3-5-6-5-3-1--1--1-| 
G|-4---5-----5----5-----5-----5-----5-------5---------0--0--0-| 
D|-3---------0----------0-----------3-------3---------2--2--2-| 
A|----------------------------------------------------3--3--3-| 
E|-3---------3----------3-----------3-------3-----------------| 

Riff 1 
    C  C11  C9 
E|-0--1---3-| 
B|-1--1---1-| 
G|-0--0---0-| 
D|----------| 
A|-3--3---3-| 
E|----------| 

Riff 2 
    C  C4  C 
E|----------| 
B|-5--3---1-| 
G|-5--5---0-| 
D|-3--3---2-| 
A|-3--3---3-| 
E|----------| 
G F (Riff 1) Que dia lindo, que dia lindo que amanheceu G F (Riff 2) Que dia lindo, que dia lindo que Deus nos deu G F (Riff 1) Que dia lindo, que dia lindo que amanheceu G F (Riff 2) Que dia lindo, que dia lindo que Deus nos deu F/G C9 E vamos andando pelo roseiral F/G C9 como se fosse muito natural Bb F ter tantas flores bem do nosso lado C4/G C9 E além das flores um cavalo alado F/G C9 Que é uma nuvem branca, nesse céu dourado Solo 1 G4(7) G7(4)(13) C11 G4(7) G7(4)(13) C11 G4(7) G7(4)(13) C11 Dm11/G Dm11/G C C4 C G4(7) G7(4)(13) C11 G4(7) G7(4)(13) C11 G4(7) G7(4)(13) C11 Dm11/G Dm11/G C C4 C
E|---------------3-----------------3-----------------3------------------------1----| 
B|-6-6-6-5-------5---6-6-6-5-------5---6-6-6--5------5---3-5-6-5-3-5-6-5-3-1--1--1-| 
G|-5-5-5-5-------5---5-5-5-5-------5---5-5-5--5------5---5-------5---------0--0--0-| 
D|-0-0-0-3-----------0-0-0-3-----------0-0-0--3----------3-------5---------2--2--2-| 
A|---------------3-----------------3-----------------3---------------------3--3--3-| 
E|-3-----3-----------3-----3-----------3------3----------3-------3-----------------| 
G F (Riff 1) Que dia lindo, que dia lindo que amanheceu G F (Riff 2) Que dia lindo, que dia lindo que Deus nos deu G F (Riff 1) Que dia lindo, que dia lindo que amanheceu G F (Riff 2) Que dia lindo, que dia lindo que Deus nos deu F/G C9 E vamos pisando em raios de sol F/G C9 E perseguindo nossa sombra azul Bb F Que vai virando nossa nuvem negra C4/G C9 Que lá do céu manda flechadas d'água F/G C9 E então se evapora aquela antiga mágoa. Solo 2 G4(7) G7(4)(13) C11 G4(7) G7(4)(13) C11 G4(7) G7(4)(13) C11 Dm11/G Dm11/G C G4(7) G7(4)(13) C11 G4(7) G7(4)(13) C11 G4(7) G7(4)(13) C11 G4(7) G7(4)(13) C11 Dm11/G Dm11/G C G4(7) G7(4)(13) C11
E|---------------3-----------------3-----------------3------------------------------------------3-| 
B|-6-6-6-5-------5---6-6-6-5-------5---6-6-6--5------5---3-5-6-5-3-5-6-5-3-1h3h1--6-6-6-5-------5-| 
G|-5-5-5-5-------5---5-5-5-5-------5---5-5-5--5------5---5-------5---------0------5-5-5-5-------5-| 
D|-0-0-0-3-----------0-0-0-3-----------0-0-0--3----------3-------5---------2------0-0-0-3---------| 
A|---------------3-----------------3-----------------3---------------------3--------------------3-| 
E|-3-----3-----------3-----3-----------3------3----------3-------3----------------3-----3---------|

Compartilhe esta música: novo

QR Code
Copiar