Prá Ser Sincero

Engenheiros do Hawaii

Tom: D
RIFF 1

e--------0--2--0-------------------------------------------------------------
b------3----------3----0----0--3--2---------2-3-2----------------------------
G----2--------------2-----0---------------4-------4-2-4-2-0------------------
D--0------------------------------------4--------------------4--2------------
A---------------------------------0---2-------------------------0------------
E----------------------3-----------------------------------------------------


RIFF 2

e--------0--2--0---------------------
b------3----------3----0----0--3--2--
G----2--------------2-----0----------
D--0---------------------------------
A---------------------------------0--
E----------------------3-------------




RIFF 3

e------0--2--0-----5--4-------------
b----3----------3-------------------
G--2--------------------------------
D-----------------------------------
A-----------------------------------
E-----------------------------------
D Pra ser sincero G A Bm Não espero de você mais do que educação G A G A Beijos sem paixão, crimes sem castigo Bm G A Aperto de mãos, apenas bons amigos D Pra ser sincero G A Bm Não espero que você minta G A Bm Não se sinta capaz de enganar G A D Quem não engana a si mesmo Bm A Bm Nós dois temos os mesmos defeitos Bm A Bm Sabemos tudo a nosso respeito Bm A G Somos suspeitos de um crime perfeito F#m Em F# E Mas crimes perfeitos não deixam suspeitos D Pra ser sincero G A Bm Não espero de você mais do que educação G A G A Beijos sem paixão, crimes sem castigo Bm G A Aperto de mãos, apenas bons amigos D Pra ser sincero G A Bm Não espero que você me perdoe G A Bm Por ter perdido a calma G A D Por ter vendido a alma ao diabo Bm Um dia desses G Num desses encontros casuais Bm Talvez a gente se encontre G Talvez a gente encontre explicação Bm Um dia desses G Num desses encontros casuais Bm Talvez eu diga Minha amiga G Pra ser sincero Prazer em vê-la A Até mais... Bm A Bm Nós dois temos os mesmos defeitos Bm A Bm Sabemos tudo a nosso respeito Bm A G Somos suspeitos de um crime perfeito F#m Em F# E Mas crimes perfeitos não deixam suspeitos

Compartilhe esta música: novo

QR Code
Copiar