Era um garoto...

Engenheiros do Hawaii

Tom: E
Introdução 2x: 


CIFRA: 
*intro 

E            B            A                     B              *riff1 
 Era um garoto que, como eu, amava os Beatles e os Rollings Stones 
E             B              A                    B      *riff1  
 Girava o mundo sempre a cantar as coisas lindas da América 
E              B             A                B       *riff1 
 Não era belo, mas mesmo assim, havia mil garotas a fim 
E                   B                  A              B         *riff1 
 Cantava 'Help!' and 'Ticked to Ride' ou 'Lady Jane' e 'Yesterday' 
E            A             B      A     E 
 Cantava 'Viva a Liberdade' mas uma carta sem esperar 
E            A            F#               B 
 Da sua guitarra o separou. Fora chamado na América... 

E    B  C# Eb      B 
 STOP com Rollings Stones! 
E    B  C# Eb      B 
 STOP com Beatles songs! 

A        Abm    F#m E  A     Ab  A  Bb B 
 Mandado foi ao Vietnã, lutar com vietcongs 

(E A B) 
 Tcha Tcha Tcha... 
    E                      B A B A 
 ...Tcha Tcha Tcha Tcha Tcha  

E            B            A                       B               *riff1 
 Era um garoto que, como eu, amava os Beatless e os Rollings Stones 
E             B          A                    B       *riff1 
 Girava o mundo, mas acabou fazendo a guerra do Vietnã 
E                B         A                  B          *riff1 
 Cabelos longos não usa mais, não toca sua guitarra e sim 
E                         B   A           B             *riff1 (exceto último B) 
 Um instrumento que sempre dá a mesma nota (Rá-tá-tá-tá) 
E              A              B         A      E 
 Não tem amigos, não vê garotas, só gente morta caindo ao chão 
E          A           F#                  B 
 Ao seu país não voltará pois está morto no Vietnã 

E    B  C# Eb             *riff 2 
 STOP com Rollings Stones! 
E    B  C# Eb      B     *riff 3 
 STOP com Beatles songs! 

A          Abm   F#m    E     A      Ab   A   Bb B 
 No peito um coração não há. Mas duas medalhas,  sim. 

*solo 1 

     |(E A B) 
 2x  | Tcha Tcha Tcha... 
     |    E                      B A B A 
     | ...Tcha Tcha Tcha Tcha Tcha 

*solo 2 


(E A B) 
Tcha Tcha Tcha... 
 E                      B A B A 
 ...Tcha Tcha Tcha Tcha Tcha 

E                 A      B                           E          B A B A  E 
TCHA TCHA TCHA............TCHA TCHA TCHA TCHA RÁ-TÁ-TÁ-TÁ RÁ-TÁ-TÁ-TÁ 


SOLOS E RIFFS: 

E|---------------------------------------------------| 
B|---------------------------------------------------| 
G|-11----10----11----10----11----10----11----10------| 
D|----11----11----11----11----11----11----11----11---| 
A|---------------------------------------------------| 
E|---------------------------------------------------| 

E|----------------------------------------------------| 
B|----------------------------------------------------| 
G|-10-----8-----10------8-----8-----6------8-----6----| 
D|-----9-----9------9------9-----6------6-----6-----6-| 
A|----------------------------------------------------| 
E|----------------------------------------------------| 

Riff 1: 

G|-11-------11-------10--------10---------8-------8-------10--------10---------| 
D|---11---11--11---11--11----11--11----11---9---9---9---9---11----11--11----11-| 
A|------9--------9--------11--------11--------9-------9--------11--------11----| 

Riff 2 

D|---3-4-6------1-2-4---| 
A|-4-------4--2-------2-| 

Riff 2 

E|-4-------------------| 
B|-6--6-4-6-----6-4----| 
G|-6--------6-4-----6~-| 
D|-6-------------------| 
A|-4-------------------| 

Solo 1: 

E|----|-------------|-18--|------18----|-------| 
B|----|-19-------19-|-----|-19------19-|-------| 
G|-18-|-------18----|-----|------------|--18~--| 
D|----|-------------|-----|------------|-------| 
A|----|-------------|-----|------------|-------| 
E|----|-------------|-----|------------|-------| 

Solo 2: 

e|-------||---------------|------------------|--------------|----------| 
B|--2----||-----------2---|--7---6-4-6-------|-4------------|----------| 
G|-----3-||--------3------|--------------3-6-|-----6--4--6--|----------| 
D|-------||-4-------------|------------------|--------------|--4---6---| 
A|-------||---------------|------------------|--------------|----------| 
E|-------||---------------|------------------|--------------|----------| 

e|---------------------|------------|---------------|------| 
B|---------------------|----7---6-4-|---------------|------| 
G|----------4-----3-4--|-6----------|-6-4-6-4-3-----|------| 
D|-4-3-4-6-----6-------|------------|------------6--|--4---| 
A|---------------------|------------|---------------|------| 
E|---------------------|------------|---------------|------| 

e|--------------------------------|------------------|--------|-------------| 
B|--------------------------------|--------5---------|--------|-------------| 
G|-------------------------4-4-4--|-6-4-6-----4-6-7--|-6------|-----3--4-4--| 
D|-4-4-4---6-6-6---7-7-7----------|------------------|--------|-------------| 
A|--------------------------------|------------------|--------|-1-----------| 
E|--------------------------------|------------------|--------|-------------| 

e|----------------|-----------|---------------------|---------------------| 
B|-----7----6-4---|-----------|--------7-7-9-7-6----|---7-6---------------| 
G|-6--------------|-6--4-3----|-------------------8-|-6-----8-6-----------| 
D|----------------|---------6-|-4-------------------|------------9-8-6----| 
A|----------------|-----------|---------------------|---------------------| 
E|----------------|-----------|---------------------|---------------------| 

e|----------------|------------------|---------------------|--------------------------| 
B|----7-7-9-7-6---|---7-6------------|---19-19-21-19-18----|----19-18-----------------| 
G|--------------8-|-6-----8-6--------|------------------20-|-18-------20-18-----------| 
D|----------------|-----------9-8-6--|---------------------|----------------21-20-18--| 
A|-9--------------|------------------|-9-------------------|--------------------------| 
E|----------------|------------------|---------------------|--------------------------| 

e|----------------------|--------------------------|------| 
B|----19-19-21-19-18----|----19-18-----------------|------| 
G|-------------------20-|-18-------20-18-----------|------|--Solo por Chuck 
D|----------------------|----------------21-20-18--|------| 
A|-21-------------------|--------------------------|--21--| 
E|----------------------|--------------------------|------|

Compartilhe esta música: novo

QR Code
Copiar