Sin Darte Cuenta

Emiliano y el Zurdo

Tom: C
 
INTRO 

    C                      G                        F 
E|--0--0-0--0------0---0-0-3--3--3--3--3--3--3--3--1--1---1- 
B|--1--1-1--1-1/5--1---1-1-3--3--3--3--3--3--3--3--1--1---1- 
G|--0--0-0--0------0---0-0-0--0--0--0--0--0--0--0--2--2---2- 
D|--2--2-2--2------2---2-2-0--0--0--0--0--0--0--0--3--3---3--- 
A|--3--3-3--3------3---3-3-2--2--2--2--2--2--2--2--3--3---3--- 
E|-------------------------3--3--3--3--3--3--3--3--1--1---1--- 
     F      C            G 
E|---1-3/5--0--0--0--0--3--3 
B|---1------1--1--1--1--3--3 
G|---2------0--0--0--0--0--0 
D|---3------2--2--2--2--0--0 
A|---3------3--3--3--3--2--2 
E|---1------------------3--3 
C G cuídate murguista de tu fama de hombre gol F E y de poetas que te pintan de cualquiera C G la tribuna es hueca y nadie sabe más q vos F C que ciertas luces cuando apuntan te marean C G Cada madrugada que resbala el corazón F E en esos charcos que han dejado las tormentas C G Por el área chica se te cuela una razón F C con lo que el viento se llevo sin darte cuenta A F Guarda murguista, febrero vuela C G y se nos lleva, todo el color F C y ese silencio aturde a los gritos G del dale campeón C G Sos el maquillaje de tu cuna y tu canción F E en la garganta del que nada lo entretiene C G Grito acostumbrado de una pálida emoción F E sos el aplauso de cartón que se te viene A F Guarda murguista, febrero vuela C G y se nos lleva, todo el color F C y ese silencio aturde a los gritos G del dale campeón SOLO C G Devolviendo al barrio espera al otro carnaval F Con melodías de una feria en la mañana C G no mires la hora que no hay tiempo pa´ pensar F C Tarde o temprano es el espejo, y siempre gana A F Dale murguista, la globa rueda C G y pocas veces vuelve por vos F C las camisetas posan de largo G jugando al adiós A F Dale murguista, volve por ella C G Que nunca es tarde y siempre hay dolor F C y no hay cartel que de con el precio G de tanta pasión CORO A F Dale murguista, la globa rueda C G y pocas veces vuelve por vos SOLISTA F C las camisetas posan de largo G jugando al adiós CORO A F dale murguista, volve por ella C G que nunca es tarde y siempre hay dolor SOLISTA F C y no hay cartel que de con el precio G de tanta pasión CORO A F dale murguista, la globa rueda C G y pocas veces vuelve por vos F C las camisetas posan de largo G jugando al adiós A F dale murguista, volve por ella C G que nunca es tarde y siempre hay dolor F C y no hay cartel que de con el precio G de tanta pasión.

Compartilhe esta música: novo

QR Code
Copiar