Twilight

Elliott Smith

Tom: F
Intro: F7/C 

F7/C 
Haven't laughed this hard in a long time, 
      Am         G                F     C/G 
Better stop now, before I start crying. 
F7/C 
Go off to sleep in the sunshine 
      Am              G              F    C/G 
Don't want to see the day when it's dying. 
       D 
She's a sight to see 
          F7/C 
She's (a) good to me 
        Am      G          F    C/G 
But I'm already somebody's baby. 
        D 
She's a pretty thing, 
          F7/C 
She knows everything 
        Am      G          F    C/G 
But I'm already somebody's baby. 
F7/C 
You don't deserve to be lonely, 
           Am                 G             F      C/G 
But those drugs you got won't make you feel better. 
F7/C 
Pretty soon you'll find its the only 
       Am                       G          F      C/G 
Little part of your life you're keeping together. 
     D 
I'm nice to you, 
        F7/C 
I could make it through 
           Am      G           F    C/G 
But you're already somebody's baby. 
        D 
I could make you smile, 
       F7/C 
If you stayed a while 
        Am            G              F    C/G 
But how long will you stay with me, baby? 

Solo: 

 
   F9/C                              Am          G    F7/C         C/G 
E|-0------------0--|0------------0--|-------------3--|-------------0--| 
B|-1-2p0---2--0-1--|1-2p0---2--0-1--|--2p0---2--0-3--|--2p0---2--0-1--| 
G|-2-----1------2--|2-----1------2--|------1------0--|------1------0--| 
D|-3------------3--|3------------3--|-------------0--|-------------2--|   
A|-3------------3--|3------------3--|-------------2--|-------------3--| 
E|-x------------x--|x------------x--|-------------3--|-------------3--| 
 
   D                F9/C            Am            G  F9/C          C/G 
E|-------------2--|-------------0--|-------------3--|-------------0--| 
A|--2p0---2--0-3--|--2p0---2--0-1--|--2p0---2--0-3--|--2p0---2--0-1--| 
D|------3------2--|------1------2--|------1------0--|------1------0--| 
G|-------------0--|-------------3--|-------------0--|-------------2--|   
B|-------------0--|-------------3--|-------------2--|-------------3--| 
E|-------------x--|-------------x--|-------------3--|-------------3--| 
F7/C Because your candle burns too bright Am G F C/G Well I almost forgot it was twilight. F7/C Even if I think that you are right Am G Well I'm tired of being down, F C/G I got no fight. D You're wonderful F7/C When its beautiful Am G F But I'm already somebody's baby. D If I went with you, F I'd dissapoint you too Am G F (RIFF 1) But I'm already somebody's baby. Am G D Already somebody's baby. ( F9/C (riff 2) Am ) RIFF 1:
 
   F 
E|1---------------| 
B|2---------------| 
G|3---------------| 
D|3---------------| 
A|1---------------| 
E|1-1-2-3---------| 
RIFF 2:
 
   F9/C     Am 
E|0----------x---| 
B|1----------0---| 
G|2----------2---| 
D|3----------2---| 
A|3--3-2---0-1---| 
E |x------3---0---|

Compartilhe esta música: novo

QR Code
Copiar