Pretty Mary K

Elliott Smith

Tom: G
Riff1 

E|---------------------------------------| 
B|---------------------------------------| 
G|-------------0-------------------------| 
D|-------0-2p0---------------------------| 
A|-0-1-2---------------------------------| 
E|---------------------------------------|
Intro Gmaj7 Sunshine been keeping me up for days There is no night-time it's only a passing phase and I feel pretty, pretty enough for you - G - E C D F Am I felt so ugly before I didn't know what to do C D G
E|---------------------------------------| 
B|---------------------------------------| 
G|-------------0-------------------------| 
D|-------0-2p0---------------------------| 
A|-0-1-2---------------------------------| 
E|---------------------------------------|
Sometimes it's all I feel up to now C But it's not worth it to you D G (riff1) Cause you gotta get out somehow C D G E It's the destruction that you require to feel C D F Am Like somebody wants you someone that's more for real Solo: C D G E C D G E C D G E C D F Am C D G E Sunshine been keeping me up for days C D G There is no night-time it's only a passing phase
E|---------------------------------------| 
B|---------------------------------------| 
G|-------------0-------------------------| 
D|-------0-2p0---------------------------| 
A|-0-1-2---------------------------------| 
E|---------------------------------------|
C D G E And I'll feel pretty another hour or two C D F Am I felt so ugly before, I didn't know what to do I felt so ugly before, I didn't know what to do I felt so ugly before, I didn't know what to do

Compartilhe esta música: novo

QR Code
Copiar