Desenho De Giz

Ellen Oléria

Tom: A
Intro Dm7 

E|--------------8---5-----------------------5---| 
B|--5---6---5---5---5---6---5---6---8---5---5---| 
G|--5---5---5-----------5---5---5---5---5---5---| 
D|--7---------------------------------------7---| 
A|--5---------------------------------------5---| 
E|----------------------------------------------|
E|--------------8---5---------------------------| 
B|--5---6---5---5---5---6---5---6---8---6---5---| 
G|--5---5---5-----------5---5---5---5---5---5---| 
D|--7-------------------------------------------| 
A|--5-------------------------------------------| 
E|----------------------------------------------|
Gm7 C7(9) C7(9-) Quem quer viver um amor F7M(9) A7(13-) Dm7(9) * Mas não quer suas marcas, qualquer cicatriz Bb7M A7(13-) A ilusão do amor Dm7M(9) G7/13 G7 Não é risco na areia, é desenho de giz C7M Bm11 Am11 Eu sei que vocês vão dizer Gm7 C7(9) C7(9-) A questão é querer, desejar, decidir F7M(9) G5/E Dm7(9) Aí diz o meu coração Cm7 F7M Eb/G F/A Am9- Que prazer tem bater se ela não vai ouvir? Bb7M Dm6/B E7(9-) Aí minha boca me diz Am7 D7(9) D7(9-) Que prazer tem sorrir se ela não me sorrir também? Gm7 F/A Bb7M Quem pode querer ser feliz C7(4/9) C7(9-) F7M(9) Se não for por um bem de amor ( Cm7 F7(9) Bb7M ) ( Dm6/B E7(9-) G4/A D7(9-) ) ( Gm7 F/A Bb7M C7(4/9) F7(4/9) F7(9) ) Bb7M Dm6/B E7(9-) Cantar mas me digam pra quem Am7 E o que vou sonhar D7(9) Só querendo escapar a dor Gm7 F/A Bb7M Quem pode querer ser feliz C7(4/9) F7(4/9) F7(9) Se não for por amor? Bb7M Dm6/B E7(9-) Cantar mas me digam pra quem ai ai Am7 E o que vou sonhar D7(9) Só querendo escapar a dor Gm7 F/A Bb7M Quem pode querer ser feliz C7(4/9) Eb7M(9) Dm7 Se não for por amor? Gm7 F/A Bb7M Quem pode querer ser feliz C7(4/9) Eb7M(9) E7M(9) F7M(9) Se não for por amor?

Compartilhe esta música: novo

QR Code
Copiar