Tom: D
Intro: 

D  G 
(Segura o 'G' até o fim do desenho do solo) 

E|------------| 
A|------------| 
D|------------| 
G|------5---5~| 
B|--5|3---5---| 
E|------------| 


D A 

Bm G 

(Segura o 'G' do começo do último solo até o começo das vozes) 


E|---9h10|15~| 
A|-----------| 
D|-----------| 
G|-----------| 
B|-----------| 
E|-----------| 
D9 Meu ex-amor se não for pedir muito A de-me outra chance pela última vez G C9 G ouça os apelos de quem canta e chora D porque que seu ex agora não quer ser mais ex. D9 passe comigo um final de semana A9 em uma cabana presa a meus abraços G D que até duvido que segunda-feira A9 D9 D você ainda queira dormir em outros braços G D que até duvido que segunda-feira A9 você ainda queira dormir em outros braços
Bm               G 
E|---7-10|7-----| 
A|7h9------4-6|6| 
D|--------------| 
G|--------------| 
B|--------------| 
E|--------------| 
D9 Como Geólogo do seu coração A9 Deixe que eu deixe seu corpo sem véu G C9 G Me ponha solto num quarto trancado D Que faço um pecado que nos leva ao céu D9 Depois da volta na troca de afeto A No seu alfabeto eu vou do A ao Z G D E ainda tem surpresa que só conto A D9 D Quando eu marcar ponto no seu ponto G. G D E ainda tem surpresa que só conto A Quando eu marcar ponto no seu ponto G.
Guitarra: 

E|--------------| 
A|---7-10~~-----| 
D|7h9-----------| 
G|--------------| 
B|--------------| 
E|--------------| 


Violão: 

E|--------| 
A|15|14---| 
D|-----14~| 
G|--------| 
B|--------| 
E|--------| 


Guitarra: 
(''x'' significa travar a corda na casa anterior) 

E|--------------| 
A|----7|10~-----| 
D|7h9x----------| 
G|--------------| 
B|--------------| 
E|--------------| 


Violão: 


E|--------| 
A|15|14---| 
D|-----14~| 
G|--------| 
B|--------| 
E|--------| 


Guitarra: 


E|-----------------------------------------------| 
A|---7h10-7---7h9-12--9------12h15~~15r12~-10~~--| 
D|7h9------7h9---------9~------------------------| 
G|-----------------------------------------------| 
B|-----------------------------------------------| 
E|-----------------------------------------------| 
E Sinta meu gosto, se aqueça em meu corpo B9 Receba o título de minha mulher A Tornar possível o quase impossível E Só será possível se você quiser Juro por Deus que se eu ouvir um sim B9 Você será por mim eternamente amada A E Eu sei de muito e se eu fizer com calma B9 E E|Ab Até sua alma fica apaixonada. A E Eu sei de muito e se eu fizer com calma B9 A9 Até sua alma fica apaixonada
Violão: 


 C#m 
E|--------4---| 
A|2h4|5-4~--2~| 
D|------------| 
G|------------| 
B|------------| 
E|------------| 


Guitarra: 


E|9|11-12-11---| 
A|----------12~| 
D|-------------| 
G|-------------| 
B|-------------| 
E|-------------| 


Violão: 


E|--------------------| 
A|2-------------------| 
D|2---4-6~4-----1-----| 
G|2-------------2-----| 
B|0-------------2-----| 
E|--------------------|

Compartilhe esta música: novo

QR Code
Copiar