Rock Roll

Eden

Tom: Ab
Ab 
Cause I'm only here for a minute 
            Cm                        Bb 
And I don't care what you say cause I know 
                           Ab 
You're only here cause I'm winning 
               Fm           Gm 
But I can be my own kind of rock and roll like 
Ab 
I don't really care if you say you don't fuck with me 
Cm 
And I can say what the fuck I want cause its down to me 
Ab 
And I got love for you even if you are doubting me 
     Cm               Bb 
Like oh my God I just can't stop 

Refrão-2:37 (Som limpo, use os dedos) 
Cause I just wanna swing like Sinatra... 
E|---------------------------------------------------------------------------| 
B|---------------------------------------------------------------------------| 
G|--5-5-----12--12-----7-7---8\-7--1-1----8-8----7-7---7-7/8-8---------------| 
D|---------------------------------------------------------------------------| 
A|---------------------------------------------------------------------------| 
E|-4-4-4--11--11--11--6-6-6-8-\6--1-1-1--8-8-8--6-6-6-6-6--------------------| 

E|---------------------------------------------------------------------------| 
B|---------------------------------------------------------------------------| 
G|--5-5-----12--12-----7-7---8\-7--1-1----8-8----7-7-7-7---------------------| 
D|---------------------------------------------------------------------------| 
A|---------------------------------------------------------------------------| 
E|-4-4-4--11--11--11--6-6-6-8-\6--1-1-1--8-8-8--6-6-6-6-6--------------------| 


Outro-3:11 (Guitarra um pouco mais distorcida, use palheta) 
Cause I aint scared of living... 
E|------------------------------------------------| 
B|------------------------------------------------| 
G|---13\12--12\-5-5-5-5-5-5----7--8\-3-3-3-3-3-3--| 
D|------------------------------------------------| 
A|------------------------------------------------| 
E|-13--\--11--\4-4-4-4-4-4----6--8-\3-3-3-3-3-3---| 

E|------------------------------------------------| 
B|------------------------------------------------| 
G|---13\12--12\-5-5-5-5-5-5----7--8\-3-3-3-3-3-3--| 
D|------------------------------------------------| 
A|------------------------------------------------| 
E|-13--\--11--\4-4-4-4-4-4----6--8-\3-3-3-3-3-3---| 

E|------------------------------------------------| 
B|------------------------------------------------| 
G|---13\12--12\-5-5-5-5-5-5----7--8\-3-3-3-3-3-3--| 
D|------------------------------------------------| 
A|------------------------------------------------| 
E|-13--\--11--\4-4-4-4-4-4----6--8-\3-3-3-3-3-3---| 

E|------------------------------------------------| 
B|------------------------------------------------| 
G|---13\12--12\-5-5-5-5-5-5----7--8\-3-3-3-3-3-3--| 
D|------------------------------------------------| 
A|------------------------------------------------| 
E|-13--\--11--\4-4-4-4-4-4----6--8-\3-3-3-3-3-3---| 

E|----------------------------------------------------------| 
B|----------------------------------------------------------| 
G|---13\12--12\-5-5-5-5-5-5-5-5-5-5--7--8\-3-3-3-3-3-3-3-3--| 
D|----------------------------------------------------------| 
A|----------------------------------------------------------| 
E|-13--\--11--\4-4-4-4-4-4-4-4-4-4--6--8-\3-3-3-3-3-3-3-3---| 

E|-----------------------------------| 
B|-13--------------------------------| 
G|-13--12--5--------------3/7--8--3--| 
D|-----------------------------------| 
A|-----------------------------------| 
E|-13--11--4---------------/6--8--3--|

Compartilhe esta música: novo

QR Code
Copiar