I See FireCifra Verificada

Ed Sheeran

Tom: Am
Capotraste na 6ª casa
 

Oh, misty eye of the mountain below   
Keep careful watch of my brothers' souls   
And should the sky be filled with fire and smoke   
                              Em   
Keep watching over Durin's sons   


D9 C D9 Em 

e|---------------------x-----x----x-| 
B|-5--------------0h1--x-3---x----x-| 
G|-2h4p2p0------0-0----x-0p2-x--0-x-| 
D|-0-------0h2----0h2--x-0---x--2-x-| 
A|----------------3----x-----x--2-x-| 
E|-0-------------------x-----x--0-x-| 
Em G If this is to end in fire D9 C Then we shall all burn together Em G D Am7 Watch the flames climb high into the night Em G D C Calling out father, oh, stand by and we will Am7 G/B Watch the flames burn auburn on C The mountain side
D9 C D9 Em 

e|---------------------x-----x----x-| 
B|-5--------------0h1--x-3---x----x-| 
G|-2h4p2p0------0-0----x-0p2-x--0-x-| 
D|-0-------0h2----0h2--x-0---x--2-x-| 
A|----------------3----x-----x--2-x-| 
E|-0-------------------x-----x--0-x-| 
Verse: Em G And if we should die tonight D C Then we should all die together Em G D Am7 Raise a glass of wine for the last time Em G Calling out father, oh, D C Prepare as we will Am7 G/B Watch the flames burn auburn on C The mountain side Am7 G/B C Desolation comes upon the sky
Em7 C9 Now I see fire D Em7 Inside the mountain Em C9 I see fire D Em7 Burning the trees Em7 C9 And I see fire D Em7 Hollowing souls Em7 C9 And I see fire D Am7 Blood in the breeze D9 And I hope that you'll remember me
D9 C D9 Em 

e|---------------------x-----x----x-| 
B|-5--------------0h1--x-3---x----x-| 
G|-2h4p2p0------0-0----x-0p2-x--0-x-| 
D|-0-------0h2----0h2--x-0---x--2-x-| 
A|----------------3----x-----x--2-x-| 
E|-0-------------------x-----x--0-x-| 
Verse: Em G Oh, should my people fall then D C9 Surely I'll do the same Em G Confined in mountain halls D Am7 We got too close to the flame Em G Calling out father, oh, D C Hold fast and we will Am7 G/B Watch the flames burn auburn on C The mountain side Am7 G/B C Desolation comes upon the sky
Em7 C9 Now I see fire D Em7 Inside the mountain Em C9 I see fire D Em7 Burning the trees Em7 C9 And I see fire D Em7 Hollowing souls Em7 C9 And I see fire D Am7 Blood in the breeze D9 And I hope that you'll remember me
Bridge: Em And if the night is burning G D I will cover my eyes Am Em For if the dark returns then G D My brothers will die A Em And as the sky's falling down G D It crashed into this lonely town Am And with that shadow upon the ground G4/B C D I hear my people screaming out
Em7 C9 Now I see fire D Em7 Inside the mountain Em C9 I see fire D Em7 Burning the trees Em7 C9 And I see fire D Em7 Hollowing souls Em7 C9 And I see fire D Am7 Blood in the breeze D9 And I hope that you'll remember me
Em7 C9 D Em7 I see fire (oh you know I saw a city burn out) fire Em7 C9 D Em7 I see fire (feel the heat upon my skin) fire Em7 C9 D Em7 I see fire (Uh, Uh, Uh) fire Em7 C9 D Em7 And I see fire burn on auburn on the mountain side

Compartilhe esta música: novo

QR Code
Copiar