For You

Duncan Sheik

Tom: D
Verse 1: 
 
  D      A Bm 
E---2-----------2-------2- 
B-----3-------------2h3--- 
G-------------2---2------- 
D-0-----0-2-4------------- 
A---------0-2------------- 
E------------------------- 
 
   For you I wanna sing a happier song... 
 
  D       A Gmaj7 
E---2-----------2-------2- 
B-----3-------------0h3--- 
G------------------------- 
D-0-----0-2-0-0---0------- 
A---------0--------------- 
E-----------3------------- 
 
   For you I wanna try to right all my wrongs... 
D A Bm For you I'm gonna break my bad habits D A C Gmaj7 There's a golden ring and I want you to have it D A There's a golden ring and I want you Verse 2: D A Bm For you I'm gonna sit and patiently wait D A Gmaj7 It's great if you're early but it's fine if you're late D A Bm For you I feel love and I just wanna show it D A C Gmaj7 You're a beautiful girl and I want you to know it Gmaj7 A D You're a beautiful girl and I want you to know it D A C Gmaj7 You're a beautiful girl and I want you to know it Gmaj7 A It's an infinite world and I want you
Piano (?) Solo: 
 
E-10-10----9----12-12-12-9---10--10-10----9----14-14-14---10- 
B-------10---10------------------------10---10--------------- 
G------------------------------------------------------------ 
D------------------------------------------------------------   X 2 
A------------------------------------------------------------ 
E------------------------------------------------------------ 
Bridge: A D A D Gmaj7 Once again I am opened A D A D Gmaj7 Once again I am opened Verse 3: D A Bm For you I'm waiting on the ticket line D A Gmaj7 I gotta get back, I don't wanna waste time D A Bm But the people are tired and the line is so long D A C/D So all I can do is sing this song
Last fill: 
 
  (C/D) 
E-------2--- 
B-----3----- 
G---------2- 
D---0------- 
A-3--------- 
E----------- 
Essa é mais uma ótima música do Duncan Sheik, aproveitem (Luiz Nunes)

Compartilhe esta música: novo

QR Code
Copiar